PrimaNota.ru - самый крупный в мире бесплатный архив песенных текстов, аккордов, табулатур и нот


Nine Inch Nails - The Frail Live - таба, видео

Регистрация Запомнить меня
Войти через:  Facebook Google Twitter Vk Yandex Mail.ru

Nine Inch Nails - The Frail Live - таба, видео

Печатать
Просмотров: 81
This is the "And all that could have been" live versions of The Frail and 
The Wretched. I've tabbed them together, as they are played consecutively 
into each other. Both have been transcribed for a guitar in drop-D tuning. 
Obviously, very little of this is true guitar work, so the bass lines for 
the frail have some pretty big stretches if you play them along to the main 
melody.  Then again, you could always find a bassist.....


( ) indicates a bend or sustained note
/ or \ indicates a slide
Harm = harmonic

Drop D tuning

---------------------10---10------------------
--8---------------8-----8-----6---------------
-----5--3-2--0-------7-------------5-4--------
----------------------------------------------
----------------------------------------------
--0--1--3----5---0--------1--3-------5--------


----------------------------------------
-5-6-------------8----------------------
-------5--5-4-------5----3---2---0------
------------------------5---------------
----------------------------------------
-0-1--3-----5---0--1-----3-------5------



-----------------------------------------5-6-------
-5----5-6--------6---3-4-3---6--8------------------
----5-----5---3--5------------------5--------------
--5---------3--------------------------------------
---------------------------------------------------
-0------1-----3------5--------0-----1--3-----------



----------------10-10-10-----------------
---8--8-8-8-8----------------------------
-7------------------------10----10-------
-----------------------------10--9-------
-----------------------------------------
-5----0---------1---------3-----5--------


----------------------1--------------------
--5-----5-6--------------------------------
------5------5----3--2--0------------------
----5----------3---------------------------
-------------------------------------------
--0--------1------3-----5------------------


-------------------------------------------------17----
-------------------------------------------------------
----------------------------------------5--7-----------
---------------------5-----8-7-------------------------
-------------------5---5-------5-3---------------------
-0-1-3-5-0-1-3-5---------0------------1---3------5-----



-----------------------------------
-----------------------------------
-----------------------------------
-----------------------------------
-----------------------------------
-0-1--3--5-------------------------

....into the Wretched......


--------------------------       ----------------
--------------------------       ----------------
--------------------------       ----------------
--------------------------       ----------------
--[-----------5------]----       -----------8--5-
--[-3-5--6------5---]-----       ---3--5-6-------
piano    repeat for 3 bars              fourth bar

-----------------------------------
-----------------------------------
-----------------------------------
-----------------0-----------------
-3-3-2-0--8(9)---------------------
-----------------------------------


----------------------------------------------
----------------------------------------------
----------------------------------------------
---8-9--9-10--10-11--11--12--3--5--3--5-------
---8-9--9-10--10-11--11--12--3--5--3--5-------
---8-9--9-10--10-11--11--12--3--5--3--5-------

-----------------------------------
----------15--15/18----------------
-(17)16----------------------------
---------------------(19)18--------
-----------------------------------
-----------------------------------


------------------------------------------------------------
------------------------------------------------------------
------------------------------------------------------------
--3-3-3-2---3-3-2-2/5-(2)/5 5-5---3-3-3-2---2/3\2--2/5------
---------------------------------Harm-------------3-2-(2nd guitar)
-------------------------------------------------------------


----------------------------------
----------------------------------
----------------------------------
--3-3-3-2--2/3\2--7\3-------------
----------------------------------
----------------------------------

-------------------------------------------------------
-------------------------------------------------------
--15/17\15---15-15-15-15-15-15--12-12----12--12--------
--------------------------------------------------------
--13/15\13---13-13-13-13-13-13--10-10----10--10--------
--------------------------------------------------------
Wah

----------------------------------
----------------------------------
--------------------3(5)3--------
------------3--------------------
---1-2-3-4----------------------
----------------------------------

Bolt.
     
Добавлено: 31.08.2013
Другие материалы по этой песне:

Страница создана 24.07.2012
http://primanota.ru/nine-inch-nails/the-frail-live-chords.htm
Привет, Гость.
Предлагаем пройти революционный курс по гитаре.
Подарок от PrimaNota.Ru, забирай!