PrimaNota.ru - самый крупный в мире бесплатный архив песенных текстов, аккордов, табулатур и нот


Nine Inch Nails - The Mark Has Been Made - текст песни, таба, бас-таба, видео

Регистрация Запомнить меня
Войти через:  Facebook Google Twitter Vk Yandex Mail.ru

Nine Inch Nails - The Mark Has Been Made - текст песни, таба, бас-таба, видео

Печатать
Просмотров: 218
The Mark Has Been Made
written by Trent Reznor
as performed on The Fragile
tab by Rafael Aguilar


e|---------------------------------|
B|---------------------------------|
G|---------------------------------|
D|----7b-7b-5-4~-----7b---7b-5-4---| 6 times
A|--5--------------5----5----------|
E|---------------------------------|

   Then

e|---------------------------------------|
B|---------------------------------------|
G|---------------------------------------|
D|---------------------------------------| 3 times
A|--5-4-0-3-2---------5-4-0-3-2----------|
E|------------3-0-3-4-----------3-0-3-1--|


   Then
  (with wah pedal)
e|------------------------------------------|
B|------------------------------------------|
G|---------x-x---------x-x----x----x-x--x---|
D|---------x-x---------x-x----x----x-x--x---| a couple of times
A|-5-8b-8b-x-x-5-8b-8b-x-x-8b-x-8b-x-x--x---|
E|------------------------------------------|


this riff is played behind the one above
i think the third time into it although im not really
sure.
e|-----------------------------------|
B|-----------------------------------|
G|--7/6--6/5--5/4--3-2---------------|
D|--7/6--6/5--5/4--3-2---------------|
A|--5/4--4/3--3/2--1-0---------------|
E|-----------------------------------|

End
e|---------------------------------------|
B|---------------------------------------|
G|---------------------------------------|
D|-12--12--11--11--10--10--9--9----------| 3 times (i think)
A|---------------------------------------|
E|---------------------------------------|
Добавлено: 19.06.2012
Другие материалы по этой песне:

Страница создана 05.03.2012
http://primanota.ru/nine-inch-nails/the-mark-has-been-made-chords.htm
Привет, Гость.
Предлагаем пройти революционный курс по гитаре.
Подарок от PrimaNota.Ru, забирай!