PrimaNota.ru - самый крупный в мире бесплатный архив песенных текстов, аккордов, табулатур и нот


Nick Mulvey - Ailsa Craig - таба, видео

Регистрация Запомнить меня
Войти через:  Facebook Google Twitter Vk Yandex Mail.ru

Nick Mulvey - Ailsa Craig - таба, видео

Печатать
Просмотров: 88
Nick Mulvey - Ailsa Craig

capo 3rd fret

again this is just the melody in the bass played by the thumb, there is a constant quick picking
of the B and G-string

Intro/Verse

e|---------------------------------------------------------------------------|
B|---------h2p0------------------------h2p0----------------------------------|
G|--h5--5---------5---2-------h5--5------------5---2-------------------------|
D|---------------------------------------------------------------------------|
A|---------------------------------------------------------------------------|
E|---------------------------------------------------------------------------|

e|---------------------------------------------------------------------------|
B|---------------------------------------------------------------------------|
G|---------------------------------------------------------------------------|
D|---2--------2--------h2--------------------2-------------------------------|
A|------3--3----3-3-------------4-------4---------4--------------------------|
E|---------------------------------5-5----------------5----------------------|


Rest

e|---------------------------------------------------------------------------|
B|---------------------------------------------------------------------------|
G|---------------------------------------------------------------------------|
D|---------------0--------------------0h2------------------------------------|
A|---------0h2------------------0h2------------------------------------------|
E|-h5s2p0--------------h5s2p0------------------------------------------------|

Добавлено: 26.09.2015
Другие материалы по этой песне:
  • Аккорды и текст

Страница создана 26.09.2015
http://primanota.ru/nick-mulvey/ailsa-craig-chords.htm
Привет, Гость.
Предлагаем пройти революционный курс по гитаре.
Подарок от PrimaNota.Ru, забирай!