PrimaNota.ru - самый крупный в мире бесплатный архив песенных текстов, аккордов, табулатур и нот


Nick Mulvey - First Mind - аккорды и текст, видео

Регистрация Запомнить меня
Войти через:  Facebook Google Twitter Vk Yandex Mail.ru

Nick Mulvey - First Mind - аккорды и текст, видео

Печатать
Просмотров: 157
First Mind
Nick Mulvey
Nick Mulvey - First Mind

Note: There is a constant beat on the G-string, mostly open except for the refrain
the last bass note of the melody is picked together with the open G-string for a while
I am not going to tab out the rhythm and the picking but only the melody.

watch this https://www.youtube.com/watch?list=PLfk1jdcUBGRLDSfxmJ9DViFDStv6D8wh_&t=21&v=XpI--rJvB6E

capo 2nd or 5th fret

Intro\Verse:

e|-----------|
B|-----------|
G|--0---0----|
D|--0-----|
A|-----------|
E|-----------|

e|----------------------------------------------------------------------------|
B|----------------------------------------------------------------------------|
G|----------------------------------------------------------------------------|
D|--0h2h5--2-2-0--------------------------------------------------------------|
A|------------------0h2h5-----2--2----0h2h5---2--2------------------------5---|
E|--------------------------------------------------0-0h3h5p--0--h3----3------|

e|----------------------------------------------------------------------------|
B|----------------------------------------------------------------------------|
G|----------------------------------------------------------------------------|
D|----------------------------------------------------------------------------|
A|---0h2h5p---2-------------0h2h5p---2----------0h2h5---2--2----------5-------|
E|------------------5---------------------5---------------------3-------------|


Refrain

    G    D   C   G
e|--0----2---0---0-------------------------------------------------------------|
B|--0----3---0---0-------------------------------------------------------------|
G|--4----2---5---4-------------------------------------------------------------|
D|--0----4---2---0-------------------------------------------------------------|
A|--5----5---3---5-------------------------------------------------------------|
E|--3------------3-------------------------------------------------------------|


Structure for the interlude

e|-----------------------------------------------------------------------------|
B|-----------------------------------------------------------------------------|
G|----------0---------------------------------------------------------------|
D|----------9--0h9h12------------------------------------------------------------|
A|--5s10---10---------10-----0h10h13p10--------------------------------------------|
E|----------------------------------------------------------------------------|

Verse riff

Late in the evening I think upon,
You and I on the tree and the stone.
My love for you is natural,
self evident like the tree and the stone,
Self assured, freedom of form.

G
Why would we ever second guess,
     D
when we both say the first mind is best,
C
Steadily we become,
  G
So let it run, let it run.

Interlude

G
And how many times must we be stunned,
D
Every star is a rising sun.
C
I'll be leading on,
G
you be leading on.

Verse riff

Stuck with the forces,
and spin with the moon.
Pull in the tides,
and you back to me soon.

Back to me soon.
Darling I pull back to me soon.
Добавлено: 26.09.2015
Другие материалы по этой песне:
  • Аккорды и текст

Страница создана 26.09.2015
http://primanota.ru/nick-mulvey/first-mind-chords.htm
Привет, Гость.
Предлагаем пройти революционный курс по гитаре.
Подарок от PrimaNota.Ru, забирай!