PrimaNota.ru - самый крупный в мире бесплатный архив песенных текстов, аккордов, табулатур и нот


Nick Mulvey - The Trellis - таба, видео

Регистрация Запомнить меня
Войти через:  Facebook Google Twitter Vk Yandex Mail.ru

Nick Mulvey - The Trellis - таба, видео

Печатать
Просмотров: 82
Уроки эстрадного вокала в Санкт-Петербурге
Nick Mulvey - The Trellis

G6:         320400
Bb°(b9)/Fb: 042300
E°7         012020
E°9         012022

Tuning:

Intro/verse
     G6  Bb°   Em7  Em
e|---0---0---0h3p0--0-------------------------------------------------------------|
B|---0---0-----0----0-------------------------------------------------------------|
G|---4---3-----0----0-------------------------------------------------------------|
D|---0---2---0h2----2--s4-s5------------------------------------------------------|
A|---2---4-----0---h2-------------------------------------------------------------|
E|---3---0-----0----0-------------------------------------------------------------|


Interlude
     Em     D       E°7 E°9              D         E°7 E°9  
e|--0h2p0---2--------0-h2---s7--12p7p0---5----------0--0h2------s7-s-5--3--h5p3-h5p3-3-------|
B|--0-------3--------2--2----------------7--5h7-----2--2-------------------------------------|
G|--0-------2--------0--0----------------7----------0--0-------------------------------------|
D|--2-------4--------2--2----------------7----------2--1-------------------------------------|
A|--2-------5--------1--1----------------5----------1--1-------------------------------------|
E|--0-------x--------0--0---------------------------0--0-------------------------------------|
   D    E°7 E°9  
e|-5----0h2--0h2----------------------------------------------------------------|
B|-7----2----2------------------------------------------------------------------|
G|-7----0----0------------------------------------------------------------------|
D|-7----2----2------------------------------------------------------------------|
A|-5----1----1------------------------------------------------------------------|
E|-x----0----0------------------------------------------------------------------|

Strange is the pencil with which I draw for you
In bigger favor, yes, I wanted you
I rose in the trellis, how I grew for you
Rose in the trellis, yes, I wanted you
So come on, put it in song
Tell me how you feel
Come on, right from the wrong
Make it real.

Just because the evidence seems clearer than day
Could it be the providence was leading you astray?
Come on, right from the wrong
Time to make it real.

Strange is the pencil with which I draw for you
In bigger favor, yes, I wanted you
I rose in the trellis, darling, how I grew for you
Rose in the trellis, yes, I wanted you
So come on, put it in song
Tell me how you feel
Come on, right from the wrong
Make it real. 
Добавлено: 26.09.2015
Вам также может быть интересно:
Другие материалы по этой песне:
  • Аккорды и текст

Страница создана 26.09.2015
http://primanota.ru/nick-mulvey/trellis-chords.htm
Привет, Гость.
Предлагаем пройти революционный курс по гитаре.
Подарок от PrimaNota.Ru, забирай!