PrimaNota.ru - самый крупный в мире бесплатный архив песенных текстов, аккордов, табулатур и нот


Nevermore - This Godless Endeavor - текст песни, таба, видео

Регистрация Запомнить меня
Войти через:  Facebook Google Twitter Vk Yandex Mail.ru

Nevermore - This Godless Endeavor - текст песни, таба, видео

Печатать
Просмотров: 197
this godless endeavor sweep solo (part 1)

this song is played on a seven string detuned one half step, but the solo only requires six 
strings.

 Guitar 1
eb-------------------------------------------------------------|
Ab----------------9-12-11-9------------------9-12-11-9---------|
Db-------------10-----------10------------10-----------10------|
Gb--------9-12-----------------12-9--9-12-----------------12-9-|
Bb-----11--------------------------11--------------------------|
Eb-------------------------------------------------------------|

 Guitar 1
eb------------10-13-12-10------------------------13-16-15-13-------|
Ab---------12-------------12------------------15------------15-----|
Db---10-13-------------------13-12-10-12-13-16----------------16---|
Gb-12-----------------------------------------------------------13-|
Bb-----------------------------------------------------------------|
Eb-----------------------------------------------------------------|

 Guitar 1
eb-------------------------------------------------------------|
Ab----------------9-12-11-9------------------9-12-11-9---------|
Db-------------10-----------10------------10-----------10------|
Gb--------9-12-----------------12-9--9-12-----------------12-9-|
Bb-----11--------------------------11--------------------------|
Eb-------------------------------------------------------------|

 Guitar 1
eb------------10-13-12-10-------------------7-10-7----------|
Ab---------12-------------12--------------9--------9--------|
Db---10-13-------------------13-10---7-10------------10-7---|
Gb-12------------------------------9----------------------9-|
Bb----------------------------------------------------------|
Eb----------------------------------------------------------|


 Guitar 1
eb-------------------------------------------------------------|
Ab----------------9-12-11-9------------------9-12-11-9---------|
Db-------------10-----------10------------10-----------10------|
Gb--------9-12-----------------12-9--9-12-----------------12-9-|
Bb-----11--------------------------11--------------------------|
Eb-------------------------------------------------------------|
|
| Guitar 2 (played at same time)
eb-------------------------------------------------------------------|
Ab----------------12-15-14-12-------------------12-15-14-12----------|
Db-------------14-------------14-------------13-------------13-------|
Gb-------12-15-------------------15-12--12-14------------------15-12-|
Bb----14------------------------------14-----------------------------|
Eb-------------------------------------------------------------------|

 Guitar 1
eb------------10-13-12-10------------------------13-16-15-13-------|
Ab---------12-------------12------------------15------------15-----|
Db---10-13-------------------13-12-10-12-13-16----------------16---|
Gb-12-----------------------------------------------------------13-|
Bb-----------------------------------------------------------------|
Eb-----------------------------------------------------------------|
|
| Guitar 2 (played at same time)
eb-------------13-16-15-13----------------------16-19-18-16----------|
Ab----------15-------------15----------------18-------------18-------|
Db----13-16-------------------16-13-15-16-19-------------------19----|
Gb-15-------------------------------------------------------------14-|
Bb-------------------------------------------------------------------|
Eb-------------------------------------------------------------------|

Guitar 1
eb--------------------------------------------------------------|
Ab----------------9-12-11-9------------------9--12-11-9---------|
Db-------------10-----------10------------10------------10------|
Gb--------9-12-----------------12-9--9-12------------------12-9-|
Bb-----11--------------------------11---------------------------|
Eb--------------------------------------------------------------|
|
| Guitar 2 (played at same time)
eb-------------------------------------------------------------------|
Ab----------------12-15-14-12-------------------12-15-14-12----------|
Db-------------14-------------14-------------13-------------13-------|
Gb-------12-15-------------------15-12--12-14------------------15-12-|
Bb----14------------------------------14-----------------------------|
Eb-------------------------------------------------------------------|

 Guitar 1
eb------------10-13-12-10-------------------7-10-7----------|
Ab---------12-------------12--------------9--------9--------|
Db---10-13-------------------13-10---7-10------------10-7---|
Gb-12------------------------------9----------------------9-|
Bb----------------------------------------------------------|
Eb----------------------------------------------------------|
|
| Guitar 2 (played at same time)
eb------------13-16-15-13----------------------10-13-10-------------|
Ab---------15-------------15----------------12----------12----------|
Db---13-16-------------------16-13----10-13----------------13-10----|
Gb-15------------------------------12----------------------------12-|
Bb------------------------------------------------------------------|
Eb------------------------------------------------------------------|


 Guitar 1
eb-------------------------------------------------------------|
Ab----------------9-12-11-9------------------9-12-11-9---------|
Db-------------10-----------10------------10-----------10------|
Gb--------9-12-----------------12-9--9-12-----------------12-9-|
Bb-----11--------------------------11--------------------------|
Eb-------------------------------------------------------------|

 Guitar 1
eb------------10-13-12-10------------------------13-16-15-13-------|
Ab---------12-------------12------------------15------------15-----|
Db---10-13-------------------13-12-10-12-13-16----------------16---|
Gb-12-----------------------------------------------------------13-|
Bb-----------------------------------------------------------------|
Eb-----------------------------------------------------------------|

 Guitar 1
eb---------------------------------------------------------|
Ab---------------8-11-10-8----------------8-11-10-8--------|
Db-------------9-----------9------------9-----------9------|
Gb--------8-11---------------11-8--8-11---------------11-8-|
Bb-----10------------------------10------------------------|
Eb---------------------------------------------------------|

 Guitar 1
eb------------9-12-11-9---------------------12-15-14-12-----------|
Ab---------11-----------11---------------14-------------14--------|
Db----9-12-----------------12-9-11-12-15-------------------15-----|
Gb-11---------------------------------------------------------12--|
Bb----------------------------------------------------------------|
Eb----------------------------------------------------------------|

 Guitar 1
eb----------------------------------------------------|
Ab-----------7-10-9-7-----------------7-10-9-7--------|
Db---------8----------8-------------8----------8------|
Gb----7-10--------------10-9---7-10--------------10-7-|
Bb--9------------------------9------------------------|
Eb----------------------------------------------------|

 Guitar 1
eb------------8-11-10-8---------------------11-14-13-11-----------|
Ab---------10-----------10---------------13-------------13--------|
Db----8-11-----------------11-8-10-11-14-------------------14-----|
Gb-10---------------------------------------------------------11--|
Bb----------------------------------------------------------------|
Eb----------------------------------------------------------------|

Guitar 1
eb-----------------------------------------------|
Ab----------6-9-8-6----------------6-9-8-6-------|
Db--------7---------7-----------7----------7-----|
Gb----6-9-------------9-8---6-9--------------9-6-|
Bb--8---------------------8----------------------|
Eb-----------------------------------------------|

Guitar 1
eb-----------7-10-9-7-------------------10-13-12-10----------|
Ab--------9-----------9--------------12-------------12-------|
Db---7-10---------------10-7-9-10-13-------------------13----|
Gb-9------------------------------------------------------10-|
Bb-----------------------------------------------------------|
Eb-----------------------------------------------------------|


Guitar 1
eb-------------------------------------------------------------|
Ab----------------9-12-11-9------------------9-12-11-9---------|
Db-------------10-----------10------------10-----------10------|
Gb--------9-12-----------------12-9--9-12-----------------12-9-|
Bb-----11--------------------------11--------------------------|
Eb-------------------------------------------------------------|
|
| Guitar 2 (played at same time)
eb-------------------------------------------------------------------|
Ab----------------12-15-14-12-------------------12-15-14-12----------|
Db-------------14-------------14-------------13-------------13-------|
Gb-------12-15-------------------15-12--12-14------------------15-12-|
Bb----14------------------------------14-----------------------------|
Eb-------------------------------------------------------------------|

Guitar 1
eb------------10-13-12-10------------------------13-16-15-13-------|
Ab---------12-------------12------------------15------------15-----|
Db---10-13-------------------13-12-10-12-13-16----------------16---|
Gb-12-----------------------------------------------------------13-|
Bb-----------------------------------------------------------------|
Eb-----------------------------------------------------------------|
|
| Guitar 2 (played at same time)
eb-------------13-16-15-13----------------------16-19-18-16----------|
Ab----------15-------------15----------------18-------------18-------|
Db----13-16-------------------16-13-15-16-19-------------------19----|
Gb-15-------------------------------------------------------------14-|
Bb-------------------------------------------------------------------|
Eb-------------------------------------------------------------------|

Guitar 1
eb------------8-11-10-8---------------------11-14-13-11-----------|
Ab---------10-----------10---------------13-------------13--------|
Db----8-11-----------------11-8-10-11-14-------------------14-----|
Gb-10---------------------------------------------------------11--|
Bb----------------------------------------------------------------|
Eb----------------------------------------------------------------|
|
| Guitar 2 (played at same time)
eb-------------11-14-13-11--------------------11-14-13-11----------|
Ab----------13-------------12--------------12-------------12-------|
Db----11-14-------------------14-11--11-13-------------------14-12-|
Gb-13------------------------------13------------------------------|
Bb-----------------------------------------------------------------|
Eb-----------------------------------------------------------------|

 Guitar 1
eb------------9-12-11-9---------------------12-15-14-12-----------|
Ab---------11-----------11---------------14-------------14--------|
Db----9-12-----------------12-9-11-12-15-------------------15-----|
Gb-11---------------------------------------------------------12--|
Bb----------------------------------------------------------------|
Eb----------------------------------------------------------------|
|
| Guitar 2 (played at same time)
eb-------------12-15-14-12----------------------15-18-17-15-17-----|
Ab----------14-------------14----------------17---------------18---|
Db----12-15-------------------15-12-14-15-18--------------------15-|
Gb-14--------------------------------------------------------------|
Bb-----------------------------------------------------------------|
Eb-----------------------------------------------------------------|

 Guitar 1
eb-----------------------------------------------------------------|
Ab-------------10-13-12-10--------------------10-13-12-10----------|
Db----------12-------------11--------------11-------------11-------|
Gb----10-13-------------------13-10--10-12-------------------13-10-|
Bb-12------------------------------12------------------------------|
Eb-----------------------------------------------------------------|
|
| Guitar 2 (played at same time)
eb---------------------------------------------------|
Ab----------7-10-9-7-----------------7-10-9-7--------|
Db--------8----------8-------------8----------8------|
Gb---7-10--------------10-9---7-10--------------10-7-|
Bb-9------------------------9------------------------|
Eb---------------------------------------------------|

 Guitar 1
eb-------------11-14-13-11----------------------14-17-16-14----------|
Ab----------13-------------13----------------16-------------16-------|
Db----11-14-------------------14-11-13-14-17-------------------17----|
Gb-13-------------------------------------------------------------14-|
Bb-------------------------------------------------------------------|
Eb-------------------------------------------------------------------|
|
| Guitar 2 (played at same time)
eb------------8-11-10-8---------------------11-14-13-11----------|
Ab---------10-----------10---------------13-------------13-------|
Db----8-11-----------------11-8-10-11-14-------------------14----|
Gb-10---------------------------------------------------------11-|
Bb---------------------------------------------------------------|
Eb---------------------------------------------------------------|

 Guitar 1
eb-------------------------------------------------------------|
Ab----------------9-12-11-9------------------9-12-11-9---------|
Db-------------11-----------10------------11-----------10------|
Gb--------9-12-----------------12-9--9-12-----------------12-9-|
Bb-----11--------------------------11--------------------------|
Eb-------------------------------------------------------------|
|
| Guitar 2 (played at same time)
eb-------------------------------------------------|
Ab-------------6-9-8-6---------------6-9-8-6-------|
Db-----------7---------7-----------7---------7-----|
Gb-------6-9-------------9-8---6-9-------------9---|
Bb-----8---------------------8-------------------8-|
Eb-------------------------------------------------|

 Guitar 1
eb-------------10-13-12-10----------------------13-16-15-13----------|
Ab----------12-------------12----------------15-------------15-------|
Db----10-13-------------------13-10-12-13-16-------------------16----|
Gb-12-------------------------------------------------------------13-|
Bb-------------------------------------------------------------------|
Eb-------------------------------------------------------------------|
|
| Guitar 2 (played at same time)
eb----------7-10-9-7-------------------10-13-12-10----------|
Ab--------9----------9--------------12-------------12-------|
Db---7-10--------------10-7-9-10-13-------------------13----|
Gb-9-----------------------------------------------------10-|
Bb----------------------------------------------------------|
Eb----------------------------------------------------------|



PART 2 (only played on one guitar)

eb--14-10------10-14-10-------------------10-14-10------10-13-10------10-
Ab-------12--12--------12---------------12--------12--12--------12--12---
Db---------11------------11-----------11------------11------------11-----
Gb-------------------------12-------12-----------------------------------
Bb---------------------------14-9-14-------------------------------------
Eb-----------------------------------------------------------------------

eb-14-10------10-15-10------10-14-10------10-
Ab------12--12--------12--12--------12--12---
Db--------11------------11------------11-----
Gb-------------------------------------------
Bb-------------------------------------------
Eb-------------------------------------------

eb-14-9------9-14-9-------------------9-14-9-------9-12-9------9-14------9-
Ab-----11--11------11---------------11-------11--11------11--11----11--11--
Db-------11----------11-----------11-----------11----------11--------11----
Gb---------------------11-------11-----------------------------------------
Bb-----------------------13-9-13-------------------------------------------
Eb-------------------------------------------------------------------------

eb-15-9------9-14------9-
Ab-----11--11----11--11--
Db-------11--------11----
Gb-----------------------
Bb-----------------------
Eb-----------------------

eb-12-8-----8-12-8-----------------8-12-8-----8-11-8-----8-12-8-----8-14-
Ab-----10-10------10-------------10------10-10------10-10------10-10-----
Db-------9----------9-----------9----------9----------9----------9-------
Gb-------------------10-------10-----------------------------------------
Bb---------------------13-7-13-------------------------------------------
Eb-----------------------------------------------------------------------

eb-8-----8-12-8-----8-
Ab--10-10------10-10--
Db----9----------9----
Gb--------------------
Bb--------------------
Eb--------------------

eb-12-7---7-12-7-------------7-12-7---7-10-7---7-12-7---7-13-7---7-12-7---7-
Ab-----9-9------9-----------9------9-9------9-9------9-9------9-9------9-9--
Db------9--------9---------9--------9--------9--------9--------9--------9---
Gb----------------9-------9-------------------------------------------------
Bb-----------------11-7-11--------------------------------------------------
Eb--------------------------------------------------------------------------

eb--14-10------10-14-10-------------------10-14-10------10-13-10------10-
Ab-------12--12--------12---------------12--------12--12--------12--12---
Db---------11------------11-----------11------------11------------11-----
Gb-------------------------12-------12-----------------------------------
Bb---------------------------14-9-14-------------------------------------
Eb-----------------------------------------------------------------------

eb-14-10------10-15-10------10-14-10------10-
Ab------12--12--------12--12--------12--12---
Db--------11------------11------------11-----
Gb-------------------------------------------
Bb-------------------------------------------
Eb-------------------------------------------

eb-14-9------9-14-9-------------------9-14-9-------9-12-9------9-14------9-
Ab-----11--11------11---------------11-------11--11------11--11----11--11--
Db-------11----------11-----------11-----------11----------11--------11----
Gb---------------------11-------11-----------------------------------------
Bb-----------------------13-9-13-------------------------------------------
Eb-------------------------------------------------------------------------

eb-15-9------9-14------9-
Ab-----11--11----11--11--
Db-------11--------11----
Gb-----------------------
Bb-----------------------
Eb-----------------------

eb-12-8-----8-12-8-----------------8-12-8-----8-11-8-----8-12-8-----8-14-
Ab-----10-10------10-------------10------10-10------10-10------10-10-----
Db-------9----------9-----------9----------9----------9----------9-------
Gb-------------------10-------10-----------------------------------------
Bb---------------------13-7-13-------------------------------------------
Eb-----------------------------------------------------------------------

eb-8-----8-12-8-----8-
Ab--10-10------10-10--
Db----9----------9----
Gb--------------------
Bb--------------------
Eb--------------------

eb-12-7-------------7-12/16-12--------------------12-14/19-16------16-19-
Ab-----9-----------9---------12----------------12-----------17--17-------
Db------9---------9------------13------------13---------------16---------
Gb-------9-------9---------------14--------14----------------------------
Bb--------11-7-11------------------14-11-14------------------------------
Eb-----------------------------------------------------------------------

eb-16------16-19/24-19-22-23~-
Ab---17--17-------------------
Db-----16---------------------
Gb----------------------------
Bb----------------------------
Eb----------------------------

and thats it, i hope you all enjoy it.

-Aaron U.
Добавлено: 04.03.2012
Другие материалы по этой песне:

Страница создана 24.02.2012
http://primanota.ru/nevermore/this-godless-endeavor-chords.htm
Привет, Гость.
Предлагаем пройти революционный курс по гитаре.
Подарок от PrimaNota.Ru, забирай!