PrimaNota.ru - самый крупный в мире бесплатный архив песенных текстов, аккордов, табулатур и нот


Nevermore - We Disintegrate - текст песни, таба, видео

Регистрация Запомнить меня
Войти через:  Facebook Google Twitter Vk Yandex Mail.ru

Nevermore - We Disintegrate - текст песни, таба, видео

Печатать
Просмотров: 137
Авторы музыки: Warrel Dane, Jeff Loomis

Nevermore
"We Disintegrate" from A Dead heart in a Dead world



Intro Verse:
Eb|-------------------------------------------------|
Bb|-------------------------------------------------|
Gb|-------------------------------------------------|
Db|-8--------8--------8--------8--------8---8-9-----|
Ab|-7--------7--------7--------7--------7---7-7-----|
Eb|----0--0-----0--0-----0--0-----0--0----0---------|
Bb|-------------------------------------------------|
       .  .     .  .     .  .     .  .    .

Eb|-------------------------------------------------|
Bb|-------------------------------------------------|
Gb|-------------------------------------------------|
Db|-6--------6--------5--------5--------5---5-6-----|
Ab|-7--------7--------7--------7--------7---7-7-----|
Eb|----0--0-----0--0-----0--0-----0--0----0---------|
Bb|-------------------------------------------------|
       .  .     .  .     .  .     .  .    .

Eb|-------------------------------------------------|
Bb|-------------------------------------------------|
Gb|-------------------------------------------------|
Db|-8--------8--------8--------8--------8---8-9-----|
Ab|-7--------7--------7--------7--------7---7-7-----|
Eb|----0--0-----0--0-----0--0-----0--0----0---------|
Bb|-------------------------------------------------|
       .  .     .  .     .  .     .  .    .

Eb|-------------------------------------------------|
Bb|-------------------------------------------------|
Gb|-------------------------------------------------|
Db|-6--------6--------6--------9--9--9--9--9--9--9-:|x2
Ab|-7--------7--------7--------7--7--7--7--7--7--7--|
Eb|----0--0-----0--0-----0--0-----0--0--0--0--0--0--|
Bb|-------------------------------------------------|
       .  .     .  .     .  .     



Second guitar on Verse Riff
Eb|--18-------18-------18-------18-------18----18-19---|
Bb|-----17-------17-------17-------17-------17---------|
Gb|--------15-------15-------15-------15---------------|
Db|----------------------------------------------------|
Ab|----------------------------------------------------|
Eb|----------------------------------------------------|
Bb|----------------------------------------------------|


Eb|----------------------------------------------------|
Bb|--21-17----21-17----21-17----17---------------------|
Gb|--------16-------16-------16----16----16------------|
Db|-----------------------------------18----18-14~----:|x2
Ab|----------------------------------------------------|
Eb|----------------------------------------------------|
Bb|----------------------------------------------------|





Bridge riff
Eb|----------------------------------------------------|
Bb|----------------------------------------------------|
Gb|----------------------------------------------------|
Db|----------------------------------------------------|
Ab|-------4--------4--------5--------5--------5--4-----|
Eb|----------------------------------------------------|
Bb|-0--2-----0--2-----0--2-----0--2-----0--2-----------|
    .  .     .  .     .  .     .  .     .  .

Eb|----------------------------------------------------|
Bb|----------------------------------------------------|
Gb|----------------------------------------------------|
Db|----------------------------------------------------|
Ab|-------4--------4-----------------------------------|
Eb|-------------------------3--------3--------3--4-----|
Bb|-0--2-----0--2-----0--2-----0--2-----0--2-----------|
    .  .     .  .     .  .     .  .     .  .

Eb|----------------------------------------------------|
Bb|----------------------------------------------------|
Gb|----------------------------------------------------|
Db|----------------------------------------------------|
Ab|-------4--------4--------5--------5--------5--4-----|
Eb|----------------------------------------------------|
Bb|-0--2-----0--2-----0--2-----0--2-----0--2-----------|
    .  .     .  .     .  .     .  .     .  .

Eb|----------------------------------------------------|
Bb|----------------------------------------------------|
Gb|----------------------------------------------------|
Db|-------------------------3-------3---------3--5----:|x2
Ab|-------4--------4-----------------------------------|
Eb|----------------------------------------------------|
Bb|-0--2-----0--2-----0--2-----0--2-----0--2-----------|
    .  .     .  .     .  .     .  .     .  .


Second fill guitar on Bridge riff
Eb|-----------------------------------------------------------|
Bb|--14----------14----14b15~r14----------14------------------|
Gb|-----13----13----13-----------13----13-------12b13~--------|
Db|--------11-----------------------11-------11---------------|
Ab|-----------------------------------------------------------|
Eb|-----------------------------------------------------------|
Bb|-----------------------------------------------------------|

Eb|-----------------------------------------------------------|
Bb|--14----------14----14b15~r14----------14----18~--20~--21~-|
Gb|-----13----13----13-----------13----13---------------------|
Db|--------11-----------------------11-------11--------------:|x2
Ab|-----------------------------------------------------------|
Eb|-----------------------------------------------------------|
Bb|-----------------------------------------------------------|




Bridge 2
Eb|------------------------------------------------------|
Bb|------------------------------------------------------|
Gb|------------------------------------------------------|
Db|-----------------------------------------------------:|x2
Ab|------11-10-9--8-----6\5-------11-10-9--12-----12/14--|
Eb|-x-x--9--8--7--6-----4\3--x-x--9--8--7--10-----10/12--|
Bb|-x-x--9--8--7--6--0--4\3--x-x--9--8--7--10--0--10/12--|

Eb|-------------------|
Bb|-------------------|
Gb|-------------------|Piano part and some ambient guitar noise,,,
Db|-2~----------------|
Ab|-2~----------------|
Eb|-0~----------------|
Bb|-------------------|


Second Guitar played over bridge 2(with wahwah)
Eb|------------------------------------------------------|
Bb|------------------------------------------------------|
Gb|------------------------------------------------------|
Db|------------------------------------------------------|
Ab|------11-10-9--8-----6\5-------11-10-9--12-----12/14--|
Eb|------------------------------------------------------|
Bb|------------------------------------------------------|





Play intro verse
Bridge Riff
Play Bridge 2




Chorus
Eb|------------------------------------|
Bb|------------------------------------|
Gb|------------------------------------|
Db|-2------------------5~----5p4------:|x2
Ab|-2-----0--2--3-3--3-3~----3-3-------|
Eb|-0----------------------------------|
Bb|------------------------------------|
  |                                    |
Eb|-16-------16-------16-------15---------|
Bb|----17-------17-------17-------17------|
Gb|-------16-------16-------16-------16---|
Db|---------------------------------------|
Ab|---------------------------------------|
Eb|---------------------------------------|
Bb|---------------------------------------|

Eb|-------------------------------|
Bb|-------------------------------|
Gb|-------------------------------|
Db|-----------------6----7-------:|x2
Ab|-4-4-4-4-4-4-4-4-4----7--------|
Eb|-----------------4----5--------|
Bb|-------------------------------|
  |                               |
Eb|-12-------12-------12-------12---------|
Bb|----14-------14-------14-------14------|
Gb|-------13-------13-------14-------14---|
Db|---------------------------------------|
Ab|---------------------------------------|
Eb|---------------------------------------|
Bb|---------------------------------------|



Repeat Chorus
Play Intro verse with solo 1




Solo 1
Eb|-----------------------------------19----------18~--|
Bb|--15b17~-17r15~--------17------17------17-----------|
Gb|------------------/16------16--------------16-------|
Db|----------------------------------------------------|
Ab|----------------------------------------------------|
Eb|----------------------------------------------------|
Bb|----------------------------------------------------|

Eb|----------19-22b24~r22~-22-------15-17-19-17-15-17-19/22-|
Bb|-19-20-22---------------------19-------------------------|
Gb|---------------------------------------------------------|
Db|---------------------------------------------------------|
Ab|---------------------------------------------------------|
Eb|---------------------------------------------------------|
Bb|---------------------------------------------------------|

Eb|-20-19-20-19--------19------------------------------|
Bb|-------------22-20-----22-20-19---------------------|
Gb|---------------------------------19-17-16-----------|
Db|------------------------------------------19-17-16--|
Ab|----------------------------------------------------|
Eb|----------------------------------------------------|
Bb|----------------------------------------------------|

Eb|----------------------------------------|
Bb|----------------------------------------|
Gb|-------------------------------16~------|
Db|----------------16-17-19-17-16----------|
Ab|-19-17-15-17-19-------------------------|
Eb|----------------------------------------|
Bb|----------------------------------------|




Play Bridge
Play Bridge 2
Play Chorus
Play Bridge 2 over and over again




Evil Outro
Eb|----------------------------------------------------|
Bb|----------------------------------------------------|
Gb|----------------------------------------------------|
Db|----------------------------------------------------|
Ab|----------------------------------------------------|
Eb|--4~------------------------------------------------|
Bb|--2~------------------------------------------------|

Add Ambient Noises( I don't tab this kinda stuff)



Notation Legend:

* -- Palm Mute
b -- Bend
br -- Bend and Release
brp -- Bend Release and Pull Off
pbr -- Bend Note Before Striking and Release
^ -- Strike Note While String Still Bent
h -- Hammer On
p -- Pull Off
tr -- Trill
x -- String Mute/Muffled
~ -- Vibrato
P.H. -- Pinch or Artificial Harmonic
N.H. -- Natural Harmonic
/ -- Slide up to Designated Note
\ -- Slide Down to Designated Note
T -- Tap on to Designated Note

Добавлено: 24.03.2012
Другие материалы по этой песне:

Страница создана 20.03.2012
http://primanota.ru/nevermore/we-disintegrate-chords.htm
Привет, Гость.
Предлагаем пройти революционный курс по гитаре.
Подарок от PrimaNota.Ru, забирай!