PrimaNota.ru - самый крупный в мире бесплатный архив песенных текстов, аккордов, табулатур и нот


Neck Deep - All Hype No Heart - таба, видео

Регистрация Запомнить меня
Войти через:  Facebook Google Twitter Vk Yandex Mail.ru

Neck Deep - All Hype No Heart - таба, видео

Печатать
Просмотров: 94
-------------------------------------------------------------------------------
                             All Hype, No Heart - Neck Deep
-------------------------------------------------------------------------------

Tuning: Drop C#

Intro:

(No lyrics)

D#|-------12*-----------------------------|
A#|----------*12--------------------------|
F#|---------------------------------------|
C#|-2~--------------2~--------------------|
G#|-2~--------------2~--------(Pickslide)-|
C#|-2~--------------2~--------------------|

All hype no heart...

Figure out the strumming pattern yourselves.

D#|---------------------------------------------------------|
A#|---------------------------------------------------------|
F#|-9----12----11----10----9--------9----12----11----9----7-|
C#|-x----x-----x-----x-----x--------x----x-----x-----x----x-|
G#|-7----10----9-----12----7--------7----10----9-----7----5-|
C#|---------------------------------------------------------|

D#|-----------------------------------------------|
A#|-----------------------------------------------|
F#|-9----12----11----10----9--------9----12----11-|
C#|-x----x-----x-----x-----x--------x----x-----x--|
G#|-7----10----9-----12----7--------7----10----9--|
C#|-----------------------------------------------|
 
You'll never understand just what this is...

D#|--------------------------------------------------------------------------|
A#|--------------------------------------------------------------------------|
F#|--------------------------------------------------------------10101010----|
C#|-2-22222222222-222-22222222222-222-22222222222-222-2222222222-x-x-x-x--22-|
G#|-2-22222222222-222-22222222222-222-22222222222-222-2222222222-8-8-8-8--22-|
C#|-2-22222222222-222-22222222222-222-22222222222-222-2222222222----------22-|
      ...........  .  ...........  .  ...........  .  ..........          .
Добавлено: 01.09.2015
Другие материалы по этой песне:
  • Аккорды и текст

Страница создана 01.09.2015
http://primanota.ru/neck-deep/all-hype-no-heart-chords.htm
Привет, Гость.
Предлагаем пройти революционный курс по гитаре.
Подарок от PrimaNota.Ru, забирай!