PrimaNota.ru - самый крупный в мире бесплатный архив песенных текстов, аккордов, табулатур и нот


My Darkest Days - Come Undone - текст песни, бас-таба, видео

Регистрация Запомнить меня
Войти через:  Facebook Google Twitter Vk Yandex Mail.ru

My Darkest Days - Come Undone - текст песни, бас-таба, видео

Печатать
Просмотров: 482
Tuning: Drop-C


Intro

F|-------------------------------------------------------|
C|-------------------------------------------------------|
G|-----3-----3-------------------------------------------|
C|-0-0---0-0----0--0-0-0--0-0--0--0--3--3-3-3--3-3--3--3-|

F|-------------------------------------------------|
C|-------------------------------------------------|
G|-1--1-1-1--1-1--1--1--0--0-0-0--3-3-3--3-3-3-3---|
C|-----------------------------------------------0-|


Verse

F|--------------------------------------------------------------------------|
C|--------------------------------------------------------------------------|
G|-5--5-5-5--5-5--5\3--3-3-3--3-3--3--1--1-1-1--1-1--1--3--3-3-0--0-0--0--3-|
C|--------------------------------------------------------------------------|

F|--------------------------------------------------------------------------|
C|--------------------------------------------------------------------------|
G|-5--5-5-5--5-5--5\3--3-3-3--3-3--3--1--1-1-1--1-1--1--3--3-3-0--0-0--0--3-|
C|--------------------------------------------------------------------------|

F|---------------------------------------------------------------------------|
C|---------------------------------------------------------------------------|
G|-------------------------------------0-1--1-1-1--1-1--1-3--0-3-0--0-0--0-3-|
C|-0--0-0-0--0-0--0-2-3--3-3-3--3-3--3---------------------------------------|

F|---------------------------------------------------------------------------|
C|---------------------------------------------------------------------------|
G|-------------------------------------0-1--1-1-1--1-1--1-3--0-3-0--0-0--0-3-|
C|-0--0-0-0--0-0--0-2-3--3-3-3--3-3--3---------------------------------------|


Bridge

F|----------------------------------------------------|
C|----------------------------------------------------|
G|-1--1--1-1-1--1--1--1-1-1--0--0--0-0-0--0--0--0-0-0-|
C|----------------------------------------------------|

F|----------------------------------------------------|
C|----------------------------------------------------|
G|-1--1--1-1-1--1--1--1-1-1--0--0--0-0-0--3--3--3-3-3-|
C|----------------------------------------------------|


Chorus

F|------------------------------------------|
C|------------------------------------------|
G|------------------------------------------|
C|-0--0-0-0--0-0--0--0--3--3-3-3--3-3--3--3-|

F|-----------------------------------------------|
C|-----------------------------------------------|
G|-1--1-1-1--1-1--1--1--0--0-0-0--3-3-3--3-3-3-3-|
C|-----------------------------------------------|

F|------------------------------------------|
C|------------------------------------------|
G|------------------------------------------|
C|-0--0-0-0--0-0--0--0--3--3-3-3--3-3--3--3-|

F|-------------------------------------------------|
C|-------------------------------------------------|
G|-1--1-1-1--1-1--1--1--0--0-0-0--3-3-3--3-3-3-3---|
C|-----------------------------------------------0-|
 
Verse

F|--------------------------------------------------------------------------|
C|--------------------------------------------------------------------------|
G|-5--5-5-5--5-5--5\3--3-3-3--3-3--3--1--1-1-1--1-1--1--3--3-3-0--0-0--0--3-|
C|--------------------------------------------------------------------------|

F|--------------------------------------------------------------------------|
C|--------------------------------------------------------------------------|
G|-5--5-5-5--5-5--5\3--3-3-3--3-3--3--1--1-1-1--1-1--1--3--3-3-0--0-0--0--3-|
C|--------------------------------------------------------------------------|

F|---------------------------------------------------------------------------|
C|---------------------------------------------------------------------------|
G|-------------------------------------0-1--1-1-1--1-1--1-3--0-3-0--0-0--0-3-|
C|-0--0-0-0--0-0--0-2-3--3-3-3--3-3--3---------------------------------------|

F|---------------------------------------------------------------------------|
C|---------------------------------------------------------------------------|
G|-------------------------------------0-1--1-1-1--1-1--1-3--0-3-0--0-0--0-3-|
C|-0--0-0-0--0-0--0-2-3--3-3-3--3-3--3---------------------------------------|


Bridge

F|----------------------------------------------------|
C|----------------------------------------------------|
G|-1--1--1-1-1--1--1--1-1-1--0--0--0-0-0--0--0--0-0-0-|
C|----------------------------------------------------|

F|----------------------------------------------------|
C|----------------------------------------------------|
G|-1--1--1-1-1--1--1--1-1-1--0--0--0-0-0--3--3--3-3-3-|
C|----------------------------------------------------|
 
Chorus

F|------------------------------------------|
C|------------------------------------------|
G|------------------------------------------|
C|-0--0-0-0--0-0--0--0--3--3-3-3--3-3--3--3-|

F|-----------------------------------------------|
C|-----------------------------------------------|
G|-1--1-1-1--1-1--1--1--0--0-0-0--3-3-3--3-3-3-3-|
C|-----------------------------------------------|

F|------------------------------------------|
C|------------------------------------------|
G|------------------------------------------|
C|-0--0-0-0--0-0--0--0--3--3-3-3--3-3--3--3-|

F|-------------------------------------------------|
C|-------------------------------------------------|
G|-1--1-1-1--1-1--1--1--0--0-0-0--3-3-3--3-3-3-3---|
C|-----------------------------------------------0-|
 
Outro

F|------------------------------------------|
C|------------------------------------------|
G|------------------------------------------|
C|-0--0-0-0--0-0--0--0--3--3-3-3--3-3--3--3-|

F|-----------------------------------------------|
C|-----------------------------------------------|
G|-1--1-1-1--1-1--1--1--0--0-0-0--3-3-3--3-3-3-3-|
C|-----------------------------------------------|

F|------------------------------------------|
C|------------------------------------------|
G|------------------------------------------|
C|-0--0-0-0--0-0--0--0--3--3-3-3--3-3--3--3-|

F|-------------------------------------------------|
C|-------------------------------------------------|
G|-1--1-1-1--1-1--1--1--0--0-0-0--3-3-3--3-3-3-3---|
C|-----------------------------------------------0-|
Добавлено: 20.12.2015
Вам также может быть интересно:
Другие материалы по этой песне:
  • Аккорды и текст

Страница создана 10.02.2014
http://primanota.ru/my-darkest-days/come-undone-chords.htm
Привет, Гость.
Предлагаем пройти революционный курс по гитаре.
Подарок от PrimaNota.Ru, забирай!