PrimaNota.ru - самый крупный в мире бесплатный архив песенных текстов, аккордов, табулатур и нот


My Darkest Days - Casual Sex - текст песни, таба, видео

Регистрация Запомнить меня
Войти через:  Facebook Google Twitter Vk Yandex Mail.ru

My Darkest Days - Casual Sex - текст песни, таба, видео

Печатать
Просмотров: 1396
Уроки эстрадного вокала в Санкт-Петербурге
Tabber - Legend Jedicsc
Tuning - Drop B

There has been no tabs of this, so I figured I'd give it a go. The song is played in 
Drop B, Sal told me on Twitter. I'm sure this is at least 99% correct! Enjoy!


Verse:
  Guitar 1
C#|----------------------------------------------|
G#|----------------------------------------------|
E |-------7----------7----------3----------3-----|
B |----------------------------------------------|
F#|--5-5----5---5-5----5---1-1----1---1-1----1---|
B |----------------------------------------------|
 pm.....    .......    .......    .......     ..

  Guitar 1
C#|----------------------------------------------|
G#|----------------------------------------------|
E |----------------------------------------------|
B |-------5----------5---------10----------9-----|
F#|------------------------8-8----8---7-7----7---|
B |--5-5----5---5-5----5-------------------------|
 pm.....    .......    .......    .......     ..

  Guitar 1
C#|----------------------------------------------|
G#|----------------------------------------------|
E |-------7----------7----------3----------3-----|
B |----------------------------------------------|
F#|--5-5----5---5-5----5---1-1----1---1-1----1---|
B |----------------------------------------------|
 pm.....    .......    .......    .......     ..

  Guitar 1
C#|----------------------------------------------|
G#|----------------------------------------------|
E |----------------------------------------------|
B |-------5----------5---------10----------9-----|
F#|------------------------8-8----8---7-7----7---|
B |--5-5----5---5-5----5-------------------------|
 pm.....    .......    .......    .......     ..

Guitar 2 kicks in around here...

  Guitar 1
C#|-------------------------------------------------|
G#|-------------------------------------------------|
E |-------7----------7----------3----------3--------|
B |-------------------------------------------------|
F#|--5-5----5---5-5----5---1-1----1---1-1----1------|
B |-------------------------------------------------|
 pm.....    .......    .......    .......     ..

  Guitar 2
C#|-------------------------------------------------|
G#|-------------------------------------------------|
E |-7--7--7--7--7--7--7--7--3--3--3--3--3--3--3--3--|
B |-7--7--7--7--7--7--7--7--3--3--3--3--3--3--3--3--|
F#|-5--5--5--5--5--5--5--5--1--1--1--1--1--1--1--1--|
B |-------------------------------------------------|
 pm.................................................

  Guitar 1
C#|-------------------------------------------------|
G#|-------------------------------------------------|
E |-------------------------------------------------|
B |-------5----------5---------10----------9--------|
F#|------------------------8-8----8---7-7----7------|
B |--5-5----5---5-5----5----------------------------|
 pm.....    .......    .......    .......     ..

Guitar 2
C#|-------------------------------------------------|
G#|-------------------------------------------------|
E |-------------------------------------------------|
B |-5--5--5--5--5--5--5--5--3--3--3--3--2--2--2--2--|
F#|-5--5--5--5--5--5--5--5--3--3--3--3--2--2--2--2--|
B |-5--5--5--5--5--5--5--5--3--3--3--3--2--2--2--2--|
 pm.................................................

 Guitar 1
C#|-------------------------------------------------|
G#|-------------------------------------------------|
E |-------7----------7----------3----------3--------|
B |-------------------------------------------------|
F#|--5-5----5---5-5----5---1-1----1---1-1----1------|
B |-------------------------------------------------|
 pm.....    .......    .......    .......     ..

  Guitar 2
C#|-------------------------------------------------|
G#|-------------------------------------------------|
E |-7--7--7--7--7--7--7--7--3--3--3--3--3--3--3--3--|
B |-7--7--7--7--7--7--7--7--3--3--3--3--3--3--3--3--|
F#|-5--5--5--5--5--5--5--5--1--1--1--1--1--1--1--1--|
B |-------------------------------------------------|
 pm.................................................

  Guitar 1
C#|-------------------------------------------------|
G#|-------------------------------------------------|
E |-------------------------------------------------|
B |-------5----------5------------------------------|
F#|-------------------------------------------------|
B |--5-5----5---5-5----5----------------------------|
 pm.....    .......    ..

Guitar 2
C#|-------------------------------------------------|
G#|-------------------------------------------------|
E |-------------------------------------------------|
B |-5--5--5--5--5--5--5--5--------------------------|
F#|-5--5--5--5--5--5--5--5--------------------------|
B |-5--5--5--5--5--5--5--5--------------------------|
 pm.......................

Chorus:
 Both Guitars
C#|-------------------------------------------------|
G#|-------------------------------------------------|
E |-7--7--7--7--7--7--7--7--3--3--3--3--3--3--3--3--|
B |-7--7--7--7--7--7--7--7--3--3--3--3--3--3--3--3--|
F#|-5--5--5--5--5--5--5--5--1--1--1--1--1--1--1--1--|
B |-------------------------------------------------|

C#|-------------------------------------------------|
G#|-------------------------------------------------|
E |-------------------------5--5--5--5--6--6--6--6--|
B |-5--5--5--5--5--5--5--5--5--5--5--5--6--6--6--6--|
F#|-5--5--5--5--5--5--5--5--3--3--3--3--4--4--4--4--|
B |-5--5--5--5--5--5--5--5--------------------------|

C#|-------------------------------------------------|
G#|-------------------------------------------------|
E |-7--7--7--7--7--7--7--7--3--3--3--3--3--3--3--3--|
B |-7--7--7--7--7--7--7--7--3--3--3--3--3--3--3--3--|
F#|-5--5--5--5--5--5--5--5--1--1--1--1--1--1--1--1--|
B |-------------------------------------------------|

C#|-------------------------------------------------|
G#|-------------------------------------------------|
E |-------------------------5--5--5--5--6--6--6--6--|
B |-5--5--5--5--5--5--5--5--5--5--5--5--6--6--6--6--|
F#|-5--5--5--5--5--5--5--5--3--3--3--3--4--4--4--4--|
B |-5--5--5--5--5--5--5--5--------------------------|

Interlude:
 Both Guitars
C#|-------------------------------------------------|
G#|-------------------------------------------------|
E |-------------------------------------------------|
B |--12-12-10h12-------12---------------------------|
F#|--------------12-10------------------------------|
B |-------------------------------------------------|  x4

Verse:
 Guitar 1
C#|-------------------------------------------------|
G#|-------------------------------------------------|
E |-------7----------7----------3----------3--------|
B |-------------------------------------------------|
F#|--5-5----5---5-5----5---1-1----1---1-1----1------|
B |-------------------------------------------------|
 pm.....    .......    .......    .......     ..

  Guitar 2
C#|-------------------------------------------------|
G#|-------------------------------------------------|
E |-7--7--7--7--7--7--7--7--3--3--3--3--3--3--3--3--|
B |-7--7--7--7--7--7--7--7--3--3--3--3--3--3--3--3--|
F#|-5--5--5--5--5--5--5--5--1--1--1--1--1--1--1--1--|
B |-------------------------------------------------|
 pm.................................................

  Guitar 1
C#|-------------------------------------------------|
G#|-------------------------------------------------|
E |-------------------------------------------------|
B |-------5----------5---------10----------9--------|
F#|------------------------8-8----8---7-7----7------|
B |--5-5----5---5-5----5----------------------------|
 pm.....    .......    .......    .......     ..

 Guitar 2
C#|-------------------------------------------------|
G#|-------------------------------------------------|
E |-------------------------------------------------|
B |-5--5--5--5--5--5--5--5--3--3--3--3--2--2--2--2--|
F#|-5--5--5--5--5--5--5--5--3--3--3--3--2--2--2--2--|
B |-5--5--5--5--5--5--5--5--3--3--3--3--2--2--2--2--|
 pm.................................................

 Guitar 1
C#|-------------------------------------------------|
G#|-------------------------------------------------|
E |-------7----------7----------3----------3--------|
B |-------------------------------------------------|
F#|--5-5----5---5-5----5---1-1----1---1-1----1------|
B |-------------------------------------------------|
 pm.....    .......    .......    .......     ..

  Guitar 2
C#|-------------------------------------------------|
G#|-------------------------------------------------|
E |-7--7--7--7--7--7--7--7--3--3--3--3--3--3--3--3--|
B |-7--7--7--7--7--7--7--7--3--3--3--3--3--3--3--3--|
F#|-5--5--5--5--5--5--5--5--1--1--1--1--1--1--1--1--|
B |-------------------------------------------------|
 pm.................................................

  Guitar 1
C#|-------------------------------------------------|
G#|-------------------------------------------------|
E |-------------------------------------------------|
B |-------5----------5---------10----------9--------|
F#|------------------------8-8----8---7-7----7------|
B |--5-5----5---5-5----5----------------------------|
 pm.....    .......    .......    .......     ..

 Guitar 2
C#|-------------------------------------------------|
G#|-------------------------------------------------|
E |-------------------------------------------------|
B |-5--5--5--5--5--5--5--5--3--3--3--3--2--2--2--2--|
F#|-5--5--5--5--5--5--5--5--3--3--3--3--2--2--2--2--|
B |-5--5--5--5--5--5--5--5--3--3--3--3--2--2--2--2--|
 pm.................................................

 Guitar 1
C#|-------------------------------------------------|
G#|-------------------------------------------------|
E |-------7----------7----------3----------3--------|
B |-------------------------------------------------|
F#|--5-5----5---5-5----5---1-1----1---1-1----1------|
B |-------------------------------------------------|
 pm.....    .......    .......    .......     ..

  Guitar 2
C#|-------------------------------------------------|
G#|-------------------------------------------------|
E |-7--7--7--7--7--7--7--7--3--3--3--3--3--3--3--3--|
B |-7--7--7--7--7--7--7--7--3--3--3--3--3--3--3--3--|
F#|-5--5--5--5--5--5--5--5--1--1--1--1--1--1--1--1--|
B |-------------------------------------------------|
 pm.................................................

  Guitar 1
C#|-------------------------------------------------|
G#|-------------------------------------------------|
E |-------------------------------------------------|
B |-------5----------5---------10----------9--------|
F#|------------------------8-8----8---7-7----7------|
B |--5-5----5---5-5----5----------------------------|
 pm.....    .......    .......    .......     ..

 Guitar 2
C#|-------------------------------------------------|
G#|-------------------------------------------------|
E |-------------------------------------------------|
B |-5--5--5--5--5--5--5--5--3--3--3--3--2--2--2--2--|
F#|-5--5--5--5--5--5--5--5--3--3--3--3--2--2--2--2--|
B |-5--5--5--5--5--5--5--5--3--3--3--3--2--2--2--2--|
 pm.................................................

Guitar 1
C#|-------------------------------------------------|
G#|-------------------------------------------------|
E |-------7----------7----------3----------3--------|
B |-------------------------------------------------|
F#|--5-5----5---5-5----5---1-1----1---1-1----1------|
B |-------------------------------------------------|
 pm.....    .......    .......    .......     ..

  Guitar 2
C#|-------------------------------------------------|
G#|-------------------------------------------------|
E |-7--7--7--7--7--7--7--7--3--3--3--3--3--3--3--3--|
B |-7--7--7--7--7--7--7--7--3--3--3--3--3--3--3--3--|
F#|-5--5--5--5--5--5--5--5--1--1--1--1--1--1--1--1--|
B |-------------------------------------------------|
 pm.................................................

  Guitar 1
C#|-------------------------------------------------|
G#|-------------------------------------------------|
E |-------------------------------------------------|
B |-------5----------5------------------------------|
F#|-------------------------------------------------|
B |--5-5----5---5-5----5----------------------------|
 pm.....    .......    ..

Guitar 2
C#|-------------------------------------------------|
G#|-------------------------------------------------|
E |-------------------------------------------------|
B |-5--5--5--5--5--5--5--5--------------------------|
F#|-5--5--5--5--5--5--5--5--------------------------|
B |-5--5--5--5--5--5--5--5--------------------------|
 pm.......................

Chorus:
 Both Guitars
C#|-------------------------------------------------|
G#|-------------------------------------------------|
E |-7--7--7--7--7--7--7--7--3--3--3--3--3--3--3--3--|
B |-7--7--7--7--7--7--7--7--3--3--3--3--3--3--3--3--|
F#|-5--5--5--5--5--5--5--5--1--1--1--1--1--1--1--1--|
B |-------------------------------------------------|

C#|-------------------------------------------------|
G#|-------------------------------------------------|
E |-------------------------5--5--5--5--6--6--6--6--|
B |-5--5--5--5--5--5--5--5--5--5--5--5--6--6--6--6--|
F#|-5--5--5--5--5--5--5--5--3--3--3--3--4--4--4--4--|
B |-5--5--5--5--5--5--5--5--------------------------|

C#|-------------------------------------------------|
G#|-------------------------------------------------|
E |-7--7--7--7--7--7--7--7--3--3--3--3--3--3--3--3--|
B |-7--7--7--7--7--7--7--7--3--3--3--3--3--3--3--3--|
F#|-5--5--5--5--5--5--5--5--1--1--1--1--1--1--1--1--|
B |-------------------------------------------------|

C#|-------------------------------------------------|
G#|-------------------------------------------------|
E |-------------------------5--5--5--5--6--6--6--6--|
B |-5--5--5--5--5--5--5--5--5--5--5--5--6--6--6--6--|
F#|-5--5--5--5--5--5--5--5--3--3--3--3--4--4--4--4--|
B |-5--5--5--5--5--5--5--5--------------------------|

Bridge:
 Both Guitars
C#|-------------------------------------------------|
G#|-------------------------------------------------|
E |-------------------------------------------------|
B |--12-12-10h12-5-3-12-----------------------------|
F#|--12-12-10h12-5-3-12-----------------------------|
B |--12-12-10h12-5-3-12-----------------------------| x3

C#|-------------------------------------------------|
G#|-------------------------------------------------|
E |-------------------5--5--5--5-10-10-10-10--------|
B |--12-12-10h12-5-3--5--5--5--5-10-10-10-10--------|
F#|--12-12-10h12-5-3--3--3--3--3--8--8--8--8--------|
B |--12-12-10h12-5-3--------------------------------|

C#|-------------------------------------------------|
G#|-------------------------------------------------|
E |-------------------------------------------------|
B |--12-12-10h12-5-3-12-----------------------------|
F#|--12-12-10h12-5-3-12-----------------------------|
B |--12-12-10h12-5-3-12-----------------------------| x3

C#|-------------------------------------------------|
G#|-------------------------------------------------|
E |-------------------5--5--5--5-10-10-10-10--------|
B |--12-12-10h12-5-3--5--5--5--5-10-10-10-10--------|
F#|--12-12-10h12-5-3--3--3--3--3--8--8--8--8--------|
B |--12-12-10h12-5-3--------------------------------|

Chorus:
 Both Guitars
C#|-------------------------------------------------|
G#|-------------------------------------------------|
E |-7--7--7--7--7--7--7--7--3--3--3--3--3--3--3--3--|
B |-7--7--7--7--7--7--7--7--3--3--3--3--3--3--3--3--|
F#|-5--5--5--5--5--5--5--5--1--1--1--1--1--1--1--1--|
B |-------------------------------------------------|

C#|-------------------------------------------------|
G#|-------------------------------------------------|
E |-------------------------5--5--5--5--6--6--6--6--|
B |-5--5--5--5--5--5--5--5--5--5--5--5--6--6--6--6--|
F#|-5--5--5--5--5--5--5--5--3--3--3--3--4--4--4--4--|
B |-5--5--5--5--5--5--5--5--------------------------|

C#|-------------------------------------------------|
G#|-------------------------------------------------|
E |-7--7--7--7--7--7--7--7--3--3--3--3--3--3--3--3--|
B |-7--7--7--7--7--7--7--7--3--3--3--3--3--3--3--3--|
F#|-5--5--5--5--5--5--5--5--1--1--1--1--1--1--1--1--|
B |-------------------------------------------------|

C#|-------------------------------------------------|
G#|-------------------------------------------------|
E |-------------------------5--5--5--5--6--6--6--6--|
B |-5--5--5--5--5--5--5--5--5--5--5--5--6--6--6--6--|
F#|-5--5--5--5--5--5--5--5--3--3--3--3--4--4--4--4--|
B |-5--5--5--5--5--5--5--5--------------------------|

Outro:
 Both Guitars
C#|-------------------------------------------------|
G#|-------------------------------------------------|
E |-------------------------------------------------|
B |--12-12-10h12-5-3-12-----------------------------|
F#|--12-12-10h12-5-3-12-----------------------------|
B |--12-12-10h12-5-3-12-----------------------------| x3

C#|-------------------------------------------------|
G#|-------------------------------------------------|
E |-------------------5--5--5--5-10-10-10-10--------|
B |--12-12-10h12-5-3--5--5--5--5-10-10-10-10--------|
F#|--12-12-10h12-5-3--3--3--3--3--8--8--8--8--------|
B |--12-12-10h12-5-3--------------------------------|

C#|-------------------------------------------------|
G#|-------------------------------------------------|
E |-------------------------------------------------|
B |--12-12-10h12-5-3-12-----------------------------|
F#|--12-12-10h12-5-3-12-----------------------------|
B |--12-12-10h12-5-3-12-----------------------------| x3

C#|-------------------------------------------------|
G#|-------------------------------------------------|
E |-------------------5--5--5--5-10-10-10-10--------|
B |--12-12-10h12-5-3--5--5--5--5-10-10-10-10--------|
F#|--12-12-10h12-5-3--3--3--3--3--8--8--8--8--------|
B |--12-12-10h12-5-3--------------------------------|

And That's it!
Добавлено: 03.08.2013
Другие материалы по этой песне:
  • Аккорды и текст

Страница создана 03.08.2013
http://primanota.ru/my-darkest-days/casual-sex-chords.htm
Привет, Гость.
Предлагаем пройти революционный курс по гитаре.
Подарок от PrimaNota.Ru, забирай!