PrimaNota.ru - самый крупный в мире бесплатный архив песенных текстов, аккордов, табулатур и нот


My Darkest Days - Set It On Fire - аккорды и текст, таба, видео

Регистрация Запомнить меня
Войти через:  Facebook Google Twitter Vk Yandex Mail.ru

My Darkest Days - Set It On Fire - аккорды и текст, таба, видео

Печатать
Просмотров: 924
Set It On Fire
My Darkest Days
Set It On Fire by My Darkest Days Chords (Key of G minor/B flat major)

Intro: Gm - Eb - Bb - F

Gm                      Eb             Bb   F
I wish my girlfriend was more like you
Gm                     Eb                   Bb   F
I lose my mind with the way you move
Gm                          Eb
The way you throw your hair around
Bb                       F
You got a smile that knocks me down
Gm                    Eb
You don't waste time, you tell the truth
Bb                 F
Yeah that's what you do

Use following picking pattern for the prechorus
     Eb                                  Bb           F                 Eb                          Bb
E|---------------------------------------------------------------------------------------------1--------|
B|---------------------------------------------------------------------------------------------3--------|
G|---------------------------------------------------------------------------------------------3--------|
D|-8------8-----8------8----------3-----3--------------------------8-----8----8----8-----------3--------|
A|-----6-----6------6-----6----------1-----1------3-----3-------------6----6----6-----6--------1--------|
E|---------------------------------------------------1----1---------------------------------------------|

Eb                             Bb       F
The world comes crashing down
Eb                             Bb (strum once)
When you come around

(a cappella)
You set it on fire


(Chorus x2)
Gm                    Eb
You take my world and turn it up
Bb          F
Turn it up, turn it up
Gm                        Eb
Yeah the way you move you burn it up
Bb
Burn it up
F
You set it on fire


Gm            Eb              Bb
Let it burn, let it burn
F
You set it on fire
Gm           Eb            Bb
Let it burn, let it burn
F
You set it on fire


Gm                  Eb              Bb   F
I wish my girlfriend laughed like you

Gm                    Eb                Bb   F
And got my jokes just like you do
Gm                   Eb
I don't want to give you the run around
Bb                     F
I'm holding on to what we've found
Gm                               Eb
You pull me in deeper with the way you move
Bb               F
Yeah that's what you do




Use following picking pattern for the prechorus
     Eb                                  Bb            F                Eb                          Bb
E|---------------------------------------------------------------------------------------------1--------|
B|---------------------------------------------------------------------------------------------3--------|
G|---------------------------------------------------------------------------------------------3--------|
D|-8------8-----8------8----------3-----3--------------------------8-----8----8-----8----------3--------|
A|-----6-----6------6-----6----------1-----1------3-----3-------------6----6----6-----6--------1--------|
E|---------------------------------------------------1----1---------------------------------------------|

(Prechorus)

Eb                              Bb       F
The world comes crashing down
Eb                       Bb (strum once)
When you come around

(a cappella)
You set it on fire




(Chorus x2)
Gm                    Eb
You take my world and turn it up
Bb          F
Turn it up, turn it up
Gm                        Eb
Yeah the way you move you burn it up
Bb
Burn it up
F
You set it on fire


Gm            Eb              Bb
Let it burn, let it burn
F
You set it on fire
Gm           Eb            Bb
Let it burn, let it burn
F
You set it on fire




Solo Chords:   Gm-Eb-Bb-F



Use following picking pattern for the prechorus
     Eb                                  Bb            F                Eb                          Bb
E|---------------------------------------------------------------------------------------------1--------|
B|---------------------------------------------------------------------------------------------3--------|
G|---------------------------------------------------------------------------------------------3--------|
D|-8------8-----8------8----------3-----3--------------------------8-----8----8-----8----------3--------|
A|-----6-----6------6-----6----------1-----1------3-----3-------------6----6----6-----6--------1--------|
E|---------------------------------------------------1----1---------------------------------------------|

(Prechorus)

Eb                              Bb       F
The world comes crashing down
Eb                       Bb (strum once)
When you come around

(a cappella)
You set it on fire




(Chorus x2)
Gm                    Eb
You take my world and turn it up
Bb          F
Turn it up, turn it up
Gm                        Eb
Yeah the way you move you burn it up
Bb
Burn it up
F
You set it on fire
(Repeat with backing vocals or improvised leads to end)


Note: Large use of harmony vocals leaves a lot of room for acoustic duos! Try having one person strum on 
beats 2+4 (as in the song), and the other do solid quarter or eight notes. Perhaps while one is picking in 
the prechorus, have the other strum each root chord once on the chord changes. Just a few ideas :)
Добавлено: 09.11.2015
Другие материалы по этой песне:
  • Аккорды и текст

Страница создана 22.06.2012
http://primanota.ru/my-darkest-days/set-it-on-fire-chords.htm
Привет, Гость.
Предлагаем пройти революционный курс по гитаре.
Подарок от PrimaNota.Ru, забирай!