PrimaNota.ru - самый крупный в мире бесплатный архив песенных текстов, аккордов, табулатур и нот


MxPx - Christmas Night Of The Zombies - текст песни, таба, видео

Регистрация Запомнить меня
Войти через:  Facebook Google Twitter Vk Yandex Mail.ru

MxPx - Christmas Night Of The Zombies - текст песни, таба, видео

Печатать
Просмотров: 105
I think is like 90% correct, maybe more, you will find out.

Intro
E|----------------------------------------------------|
B|----------------------------------------------------|
G|----------------------------------------------------|
D|-5-5--8-8-8-8-8--------3-3--3-3-3--3--8-8--9--10-10-|
A|-5-5--8-8-8-8-8---x8---3-3--3-3-3--3--8-8--9--10-10-|
E|-3-3--6-6-6-6-6--------1-1--1-1-1--1--6-6--7---8--8-|

Verse
E|-----------------------|
B|-----------------------|
G|-----------------------|
D|-5-5--8-8-8-8-8--------|
A|-5-5--8-8-8-8-8---x8---|
E|-3-3--6-6-6-6-6--------|

Pre-chorus
E|----------------------------------------------------|
B|----------------------------------------------------|
G|-2-2-2-2--1-1-1-1-1--2-2-2-2-2-2-2-2-2-2------------|
D|-2-2-2-2--3-3-3-3-3--2-2-2-2-2-2-2-2-2-2------------|
A|-0-0-0-0--3-3-3-3-3--0-0-0-0-0-0-0-0-0-0------------|
E|----------------------------------------------------|

Chorus
E|----------------------------------------------------|
B|----------------------------------------------------|
G|----------------------------------------------------|
D|-5-5-5-5-5--3-3-3-3-3--8--3--10--8--10--8---x2------|
A|-5-5-5-5-5--3-3-3-3-3--8--3--10--8--10--8-----------|
E|-3-3-3-3-3--1-1-1-1-1--6--1---8--6---8--6-----------|

E|----------------------------------------------------|
B|----------------------------------------------------|
G|----------------------------------------------------|
D|-5-5--8-8-8-8-8--------3-3--3-3-3--3--8-8--9--10-10-|
A|-5-5--8-8-8-8-8---x4---3-3--3-3-3--3--8-8--9--10-10-|
E|-3-3--6-6-6-6-6--------1-1--1-1-1--1--6-6--7---8--8-|

Verse
E|-----------------------|
B|-----------------------|
G|-----------------------|
D|-5-5--8-8-8-8-8--------|
A|-5-5--8-8-8-8-8---x8---|
E|-3-3--6-6-6-6-6--------|

Pre-chorus
E|----------------------------------------------------|
B|----------------------------------------------------|
G|-2-2-2-2--1-1-1-1-1--------2-2-2-2-2-2-2-2-2-2------|
D|-2-2-2-2--3-3-3-3-3---x3---2-2-2-2-2-2-2-2-2-2------|
A|-0-0-0-0--3-3-3-3-3--------0-0-0-0-0-0-0-0-0-0------|
E|----------------------------------------------------|

Chorus
E|----------------------------------------------------|
B|----------------------------------------------------|
G|----------------------------------------------------|
D|-5-5-5-5-5--3-3-3-3-3--8--3--10--8--10--8---x2---5--|
A|-5-5-5-5-5--3-3-3-3-3--8--3--10--8--10--8--------5--|
E|-3-3-3-3-3--1-1-1-1-1--6--1---8--6---8--6--------3--|

(Bass part)

Solo
/  slide up
E|-----------------------------------------------------|
B|-----------------------------------------------------|
G|-----------------------------------------------------|
D|-----------------------------------------------------|
A|-----------------------------------------------------|
E|-11-10-8-6-3-6--11-10-8-6-3--11-10-8-6-3-6--10/14-17-|

Chorus
E|----------------------------------------------------|
B|----------------------------------------------------|
G|----------------------------------------------------|
D|-5-5-5-5-5--3-3-3-3-3--8--3--10--8--10--8---x4------|
A|-5-5-5-5-5--3-3-3-3-3--8--3--10--8--10--8-----------|
E|-3-3-3-3-3--1-1-1-1-1--6--1---8--6---8--6-----------|

End
E|------------------|
B|------------------|
G|------------------|
D|-8--3--10--8--5---|
A|-8--3--10--8--5---|
E|-6--1---8--6--3---|

Hope you like it!!
Добавлено: 26.09.2013
Другие материалы по этой песне:
  • Аккорды и текст

Страница создана 26.03.2012
http://primanota.ru/mxpx/christmas-night-of-the-zombies-chords.htm
Привет, Гость.
Предлагаем пройти революционный курс по гитаре.
Подарок от PrimaNota.Ru, забирай!