PrimaNota.ru - самый крупный в мире бесплатный архив песенных текстов, аккордов, табулатур и нот


Mute Math - Quarantine - текст песни, бас-таба, видео

Регистрация Запомнить меня
Войти через:  Facebook Google Twitter Vk Yandex Mail.ru

Mute Math - Quarantine - текст песни, бас-таба, видео

Печатать
Просмотров: 108
Intro (x6)
-----------------------------------------------------------------------------|
-------------2-2-2-2-2-------------------------------------------------------|
-2h4-------------------4-----------------------------------------------------|
-----0--2-2------------------------------------------------------------------|

slow part (x2, hit the 3rd fret of E string several times on 2nd time thru)
-----------------------------------------------------------------------------|
-11h14-11---11h12------------------------11h14-11--11------------------------|
---------13-------13--11-13-11-------------------13--------------------------|
-------------------------------13s-6-----------------------------------------|


----------------------------------------------------------------------------|
-8h11-8----8h10----------------------8h11-8---8-8-9-10~---------------------|
--------10------10--8-10-8-----------------10-------------------------------|
---------------------------10s-3--------------------------------------------|

play intro again 4 times

play slow part again 2 times with this slight variation at the end:
----------------------------------------------------------------------------|
-8h11-8-------8-------------------------------------------------------------|
-------10-10---10--9--------------------------------------------------------|
--------------------7--9~---------------------------------------------------|

bridge and outro (combination of these riffs over and over again)
--------------|--------------------------|-----------------------------------|
-----9--9h11~-|-----9h11-----9h11--------|-9h11-9----------------------------|
-9h11-11------|-9h11-----9h11-----9-7----|-------9h11h9-7-9------------------|
--------------|----------------------7-9-|------------------7-7h9------------|
Добавлено: 27.11.2013
Другие материалы по этой песне:
  • Аккорды и текст

Страница создана 27.11.2013
http://primanota.ru/mute-math/quarantine-chords.htm
Привет, Гость.
Предлагаем пройти революционный курс по гитаре.
Подарок от PrimaNota.Ru, забирай!