PrimaNota.ru - самый крупный в мире бесплатный архив песенных текстов, аккордов, табулатур и нот


Mute Math - Break The Same - текст песни, таба, видео

Регистрация Запомнить меня
Войти через:  Facebook Google Twitter Vk Yandex Mail.ru

Mute Math - Break The Same - текст песни, таба, видео

Печатать
Просмотров: 110
Hello, I made this as good as i could, I bet it's pretty close the original!
Well good luck!




Intro/chorus

e|-----11---11-----9----9----9-----||-----11-----11-----9-----9--14-11|
b|---9----9-----9----9-----9-------||--9------9------9-----9----------|
g|---------------------------------||---------------------------------|
d|---------------------------------||---------------------------------|
a|---------------------------------||---------------------------------|
E|---------------------------------||---------------------------------|


Verse (figure one)
e|---------------------------------|
b|-----0---------------------------|
g|---------------------------------|
d|--6-------4----------------------|
a|-------6-------------------------|
E|---------------------------------|

Verse (figure two)
e|---------------------------------|
b|----------------7-7--------------|   Figure it out on your own, there you
g|----8--8--8--8------9--8---------|   got all the tones!
d|--9--9--9--9---------------------|
a|---------------------------------|
E|---------------------------------|
Добавлено: 08.09.2013
Другие материалы по этой песне:
  • Аккорды и текст

Страница создана 08.09.2013
http://primanota.ru/mute-math/break-the-same-chords.htm
Привет, Гость.
Предлагаем пройти революционный курс по гитаре.
Подарок от PrimaNota.Ru, забирай!