PrimaNota.ru - самый крупный в мире бесплатный архив песенных текстов, аккордов, табулатур и нот


Muse - Thoughts Of A Dying Antheist - таба, видео

Регистрация Запомнить меня
Войти через:  Facebook Google Twitter Vk Yandex Mail.ru

Muse - Thoughts Of A Dying Antheist - таба, видео

Печатать
Просмотров: 168
-----------------------------------------------------------------------------
              Thoughts Of A Dying Antheist - Muse
-----------------------------------------------------------------------------
Tabbed by: olive14
Email: olive14@u2.com

Tuning: DADGBe

Intro
e|-------10-------10-------10-------10--------------------------------------|
B|----------11-------11-------11-------11-----------------------------------|
G|-------------12-------12-------12-------12---  X4  -----------------------|
D|-11/12--------------------------------------------------------------------|
A|--------------------------------------------------------------------------|
D|--------------------------------------------------------------------------|


Verse
e|-------10-------10-------10-------10-------10-----------------------------|
B|----------11-------11-------11-------11-------11--------------------------|
G|-------------12-------12-------12-------12--------------------------------|
D|-11/12--------------------------------------------------------------------|
A|--------------------------------------------------------------------------|
D|--------------------------------------------------------------------------|

e|-----10-------10-------10-------10-------10-------------------------------|
B|--------11-------11-------11-------11-------11----------------------------|
G|-----------10-------10-------10-------10-------10-------------------------|
D|-12-----------------------------------------------------------------------|
A|--------------------------------------------------------------------------|
D|--------------------------------------------------------------------------|

e|-----11-------11-------11-------11-------11-------------------------------|
B|--------11-------11-------11-------11-------11----------------------------|
G|-----------12-------12-------12-------12-------12-------------------------|
D|-13-----------------------------------------------------------------------|
A|--------------------------------------------------------------------------|
D|--------------------------------------------------------------------------|

e|-------------10----------------------10-----------------------------------|
B|-------10-------10----10-------10-------10----10--------------------------|
G|----12----12-------12-------11----11-------11-----------------------------|
D|-12----------------------12-----------------------------------------------|
A|--------------------------------------------------------------------------|
D|--------------------------------------------------------------------------|

e|--------------10----------------------11----------------------------------|
B|--------11-------11----11-------13-------13----13-------------------------|
G|-----12----12-------12-------12----12-------12----------------------------|
D|--12----------------------13----------------------------------------------|
A|--------------------------------------------------------------------------|
D|--------------------------------------------------------------------------|

e|-------------11-------11-------11-------11--------------------------------|
B|-------10-------10-------10-------10-------10-----------------------------|
G|----10----10-------10-------10-------10-------10--------------------------|
D|-10-----------------------------------------------------------------------|
A|--------------------------------------------------------------------------|
D|--------------------------------------------------------------------------|

e|-------------10----------------------10-----------------------------------|
B|-------11-------11----11-------11-------11----11--------------------------|
G|----10----10-------10-------10----10-------10-----------------------------|
D|-12----------------------13-----------------------------------------------|
A|--------------------------------------------------------------------------|
D|--------------------------------------------------------------------------|

e|-------------10----------------------10-----------------------------------|
B|-------11-------11----11-------11-----------------------------------------|
G|----10----10-------10-------10----10--------------------------------------|
D|-12----------------------12-----------------------------------------------|
A|--------------------------------------------------------------------------|
D|--------------------------------------------------------------------------|


Chorus
e|-11-11-11-11-10-10-10-10-11-11-11-11-10-10-11-11-10-11-11-11-10-----------|
B|-13-11-10-10-11-10-11-12-13-11-10-10-11-11-11-11-11-10-11-11-11-----------|
G|-12-12-10-10-10-10-10-10-12-12-10-10-10-13-12-11-10-10-12-11-10-----------|
D|-10-10-10-10-12-12-12-12-10-10-10-10-12-12-13-13-12-12-13-13-12-----------|
A|--------------------------------------------------------------------------|
D|--------------------------------------------------------------------------|


Bbridge
e|-3-3-3--------------------------------------------------------------------|
B|-3-3-3--------------------------------------------------------------------|
G|-3-3-3-8------------------------------------------------------------------|
D|-5-5-5-8------------------------------------------------------------------|
A|-5-4-5-6------------------------------------------------------------------|
D|-5-3-5--------------------------------------------------------------------|


Solo
e|--------------------------------------------------------------------------|
B|----------------------------11b13r11-10b11--------------------------------|
G|-10b12~10-7-----------12b14~---------------10b12~12b14~14h15p14-----------|
D|------------10-8------------------------------------------------12--------|
A|-----------------10-8-----------------------------------------------------|
D|--------------------------------------------------------------------------|

e|--------------------------------------------------------------------------|
B|--------------------------------------------------------------------------|
G|-14b15~14-15-15b17r15~17b19r17~17b19~17-19-19b20~19-20b22~----------------|
D|--------------------------------------------------------------------------|
A|--------------------------------------------------------------------------|
D|--------------------------------------------------------------------------|

‘Not sure about the bridge and the solo… He uses a whammy pedal a lot… 
Don't have any so…
Forgive my bad English !!!

Hoping this can help…

| /  slide up
| \  slide down
| h  hammer-on
| p  pull-off
| ~  vibrato
| +  harmonic
| x  Mute note
=============================================================================
Добавлено: 26.02.2012
Другие материалы по этой песне:
  • Аккорды и текст

Страница создана 26.02.2012
http://primanota.ru/muse/thoughts-of-a-dying-antheist-chords.htm
Привет, Гость.
Предлагаем пройти революционный курс по гитаре.
Подарок от PrimaNota.Ru, забирай!