PrimaNota.ru - самый крупный в мире бесплатный архив песенных текстов, аккордов, табулатур и нот


Muse - Twin Balloonatic - бас-таба, видео

Регистрация Запомнить меня
Войти через:  Facebook Google Twitter Vk Yandex Mail.ru

Muse - Twin Balloonatic - бас-таба, видео

Печатать
Просмотров: 192
Artist: Muse

Album: B-Sides ( Cave CD1 )

Song: Twin / Balloonatic

___________________________________

Intro
                           X8
G||-----------------------|
D||-----------------------|
A||--------6-8-6---0-3-5--|
E||--3-3/-----------------|

Verse
                           X8
G||-----------------------|
D||-----------------------|
A||--------6-8-6---0-3-5--|
E||--3-3/-----------------|

Chorus 1
                                            X3
G||----------------------------------------|
D||--5---6---7---8-------------------------|
A||----------------------------------------|
E||---3---4---5---6/--888888888--66-55-44--|

G||------------------------------|
D||--5---6---7---8---------------|
A||------------------------------|
E||---3---4---5---6/--888888888--|

Pre-Verse
                           X4
G||-----------------------|
D||-----------------------|
A||--------6-8-6---0-3-5--|
E||--3-3/-----------------|

Verse 
                           X8
G||-----------------------|
D||-----------------------|
A||--------6-8-6---0-3-5--|
E||--3-3/-----------------|

Chorus 2
                                            X4
G||----------------------------------------|
D||--5---6---7---8-------------------------|
A||----------------------------------------|
E||---3---4---5---6/--888888888--66-55-44--|

G||------------------------------|
D||--5---6---7---8---------------|
A||------------------------------|
E||---3---4---5---6/--888888888--|

Interlude

G||-------|-------|-------|-------|
D||-------|-------|-------|-------|
A||-------|-------|-------|-------|
E||--3-3--|--3-3--|--3-3--|--3-3--|

Pre-Chorus
                           X8
G||-----------------------|
D||-----------------------|
A||--------6-8-6---0-3-5--|
E||--3-3/-----------------|

Chorus 3
                                            X4
G||----------------------------------------|
D||--5---6---7---8-------------------------|
A||----------------------------------------|
E||---3---4---5---6/--888888888--66-55-44--|

G||------------------------------|
D||--5---6---7---8---------------|
A||------------------------------|
E||---3---4---5---6/--888888888--|

End Riff
                             X3
G||-------------------------|
D||-------------------8-10--|
A||--------------8-10-------|
E||--8-8-8-88-88------------|

G||-----------------------|
D||-----------------------|
A||--------------------6--|
E||--8-8-8-88-88-8888-----|

Tab by: Pedro Zappa
Добавлено: 19.04.2012
Другие материалы по этой песне:
  • Аккорды и текст

Страница создана 19.04.2012
http://primanota.ru/muse/twin-balloonatic-chords.htm
Привет, Гость.
Предлагаем пройти революционный курс по гитаре.
Подарок от PrimaNota.Ru, забирай!