PrimaNota.ru - самый крупный в мире бесплатный архив песенных текстов, аккордов, табулатур и нот


Muse - Reapers Live - таба, видео

Регистрация Запомнить меня
Войти через:  Facebook Google Twitter Vk Yandex Mail.ru

Muse - Reapers Live - таба, видео

Печатать
Просмотров: 127
Tabbed by Priad-luabe

Tuning: dADGBE

Intro: Attack strings with harmonic/palm mute in time with drums then pickscrape/slide down the neck

                    (Two hand tapping)
  t        t        t        t        t        t        t        t
E|------------------------------------------------------------------------|
B|------------------------------------------------------------------------|
G|------------------------------------------------------------------------|
D|12-0-4-7-12-0-4-7-12-0-4-7-12-0-4-7-12-0-4-7-12-0-4-7-12-0-4-7-12-0-4-7-|
A|------------------------------------------------------------------------|
d|------------------------------------------------------------------------|

  t        t        t        t        t        t        t        t
E|------------------------------------------------------------------------|
B|------------------------------------------------------------------------|
G|------------------------------------------------------------------------|
D|12-0-5-8-12-0-5-8-12-0-5-8-12-0-5-8-12-0-5-8-12-0-5-8-12-0-5-8-12-0-5-8-|
A|------------------------------------------------------------------------|
d|------------------------------------------------------------------------|

  t         t         t         t         t         t         t         t
E|--------------------------------------------------------------------------------|
B|--------------------------------------------------------------------------------|
G|--------------------------------------------------------------------------------|
D|12-0-8-11-12-0-8-11-12-0-8-11-12-0-8-11-12-0-8-11-12-0-8-11-12-0-8-11-12-0-8-11-|
A|--------------------------------------------------------------------------------|
d|--------------------------------------------------------------------------------|

  t         t         t         t         t         t         t         t
E|--------------------------------------------------------------------------------|
B|--------------------------------------------------------------------------------|
G|--------------------------------------------------------------------------------|
D|12-0-7-11-12-0-7-11-12-0-7-11-12-0-7-11-12-0-7-11-12-0-7-11-12-0-7-11-12-0-7-11-|
A|--------------------------------------------------------------------------------|
d|--------------------------------------------------------------------------------|

  t        t        t        t        t        t        t        t
E|------------------------------------------------------------------------|
B|------------------------------------------------------------------------|
G|12-0-3-7-12-0-3-7-12-0-3-7-12-0-3-7-12-0-3-7-12-0-3-7-12-0-3-7-12-0-3-7-|
D|------------------------------------------------------------------------|
A|------------------------------------------------------------------------|
d|------------------------------------------------------------------------|

  t        t        t        t        t        t        t        t
E|------------------------------------------------------------------------|
B|------------------------------------------------------------------------|
G|12-0-5-8-12-0-5-8-12-0-5-8-12-0-5-8-12-0-5-8-12-0-5-8-12-0-5-8-12-0-5-8-|
D|------------------------------------------------------------------------|
A|------------------------------------------------------------------------|
d|------------------------------------------------------------------------|

  t        t        t        t        t        t        t        t
E|------------------------------------------------------------------------|
B|------------------------------------------------------------------------|
G|12-0-6-9-12-0-6-9-12-0-6-9-12-0-6-9-12-0-6-9-12-0-6-9-12-0-6-9-12-0-6-9-|
D|------------------------------------------------------------------------|
A|------------------------------------------------------------------------|
d|------------------------------------------------------------------------|

  t     t     t    t    t    t    t    t    t
E|-----------------------------------------------|
B|-----------------------------------------------|
G|12-11-12-10-12-9-12-8-12-7-12-6-12-5-12-4-12-3-|
D|-----------------------------------------------|
A|-----------------------------------------------|
d|-----------------------------------------------|

Verse:

 (Home,           is becoming a  Killing field       there's a crosshair locked on my heart   with no
E|------------------------------------------------55----55----55----55-----------------------------|
B|66-xx-66-xx-66-xx-66-xx-88-xx-88-xx-88-xx-88-xx-66-xx-66-xx-66-xx-66-xx-88-xx-88-xx-88-xx-88-xx--|
G|77-xx-77-xx-77-xx-77-xx-77-xx-77-xx-77-xx-77-xx-55-xx-55-xx-55-xx-55-xx-77-xx-77-xx-77-xx-77-xx--|
D|77-xx-77-xx-77-xx-77-xx-88-xx-88-xx-88-xx-88-xx-77-xx-77-xx-77-xx-77-xx-88-xx-88-xx-88-xx-88-xx--|
A|55-xx-55-xx-55-xx-55-xx-------------------------00-xx-00-xx-00-xx-00-----------------------------|
d|-------------------------------------------------------------------------------------------------|

  recourse,   and theres no one behind the wheel   hellfire           you're wiping me out      killed by
E|------------------------------------------------55----55----55----55------------------------------------|
B|66-xx-66-xx-66-xx-66-xx-88-xx-88-xx-88-xx-88-xx-66-xx-66-xx-66-xx-66-xx-88-xx-88-xx-88-xx-88-xx-55-xx-55|
G|77-xx-77-xx-77-xx-77-xx-77-xx-77-xx-77-xx-77-xx-55-xx-55-xx-55-xx-55-xx-77-xx-77-xx-77-xx-77-xx-66-xx-66|
D|77-xx-77-xx-77-xx-77-xx-88-xx-88-xx-88-xx-88-xx-77-xx-77-xx-77-xx-77-xx-88-xx-88-xx-88-xx-88-xx-77-xx-77|
A|55-xx-55-xx-55-xx-55-xx-------------------------00-xx-00-xx-00-xx-00------------------------------------|
d|--------------------------------------------------------------------------------------------------------|

Bridge
                     (DRONES!)             [KILLED BY]
E|------------------------------------------------|
B|------------------------------------------------|
G|------------------------------------------------|
D|--------------------------------------------5/6-|
A|--5-3-0-3-0---------0-------5-3-0-3-0-------3/4-|
d|0-----------5-3-0-0---0---0-----------5-3-0-----|

                     (DRONES!)             [KILLED BY]
E|------------------------------------------------|
B|------------------------------------------------|
G|------------------------------------------------|
D|--------------------------------------------3/4-|
A|--5-3-0-3-0---------0-------5-3-0-3-0-------3/4-|
d|0-----------5-3-0-0---0---0-----------5-3-0-3/4-|

Chorus (x2)

E|----------------------------------------------------------------|
B|----------------------------------------------------------------|
G|----------------------------------------------------------------|
D|----------------------------------------------------------------|
A|------------------------------------------------------------3\2-|
d|3-5-555-3h5---2-3-333-2h3---8-10-101010-9h10-------3-5-555--3\2-|

Riff: (with whammy +ve)

  -                 +                 -                 +
                    (Two hand tapping)
  t        t        t        t        t        t        t        t
E|------------------------------------------------------------------------|
B|------------------------------------------------------------------------|
G|------------------------------------------------------------------------|
D|12-0-4-7-12-0-4-7-12-0-4-7-12-0-4-7-12-0-4-7-12-0-4-7-12-0-4-7-12-0-4-7-|
A|------------------------------------------------------------------------|
d|------------------------------------------------------------------------|

  -                 +                 -                 +

  t        t        t        t        t        t        t        t
E|------------------------------------------------------------------------|
B|------------------------------------------------------------------------|
G|------------------------------------------------------------------------|
D|12-0-5-8-12-0-5-8-12-0-5-8-12-0-5-8-12-0-5-8-12-0-5-8-12-0-5-8-12-0-5-8-|
A|------------------------------------------------------------------------|
d|------------------------------------------------------------------------|

  -                   +                   -                   +

  t         t         t         t         t         t         t         t
E|--------------------------------------------------------------------------------|
B|--------------------------------------------------------------------------------|
G|--------------------------------------------------------------------------------|
D|12-0-8-11-12-0-8-11-12-0-8-11-12-0-8-11-12-0-8-11-12-0-8-11-12-0-8-11-12-0-8-11-|
A|--------------------------------------------------------------------------------|
d|--------------------------------------------------------------------------------|

  -                   +                   -                   +

  t         t         t         t         t         t         t         t
E|--------------------------------------------------------------------------------|
B|--------------------------------------------------------------------------------|
G|--------------------------------------------------------------------------------|
D|12-0-7-11-12-0-7-11-12-0-7-11-12-0-7-11-12-0-7-11-12-0-7-11-12-0-7-11-12-0-7-11-|
A|--------------------------------------------------------------------------------|
d|--------------------------------------------------------------------------------|

  -                 +                 -                 +

  t        t        t        t        t        t        t        t
E|------------------------------------------------------------------------|
B|------------------------------------------------------------------------|
G|12-0-3-7-12-0-3-7-12-0-3-7-12-0-3-7-12-0-3-7-12-0-3-7-12-0-3-7-12-0-3-7-|
D|------------------------------------------------------------------------|
A|------------------------------------------------------------------------|
d|------------------------------------------------------------------------|

  -                 +                 -                 +

  t        t        t        t        t        t        t        t
E|------------------------------------------------------------------------|
B|------------------------------------------------------------------------|
G|12-0-5-8-12-0-5-8-12-0-5-8-12-0-5-8-12-0-5-8-12-0-5-8-12-0-5-8-12-0-5-8-|
D|------------------------------------------------------------------------|
A|------------------------------------------------------------------------|
d|------------------------------------------------------------------------|

  -                 +                 -                 +
  t        t        t        t        t        t        t        t
E|------------------------------------------------------------------------|
B|------------------------------------------------------------------------|
G|12-0-6-9-12-0-6-9-12-0-6-9-12-0-6-9-12-0-6-9-12-0-6-9-12-0-6-9-12-0-6-9-|
D|------------------------------------------------------------------------|
A|------------------------------------------------------------------------|
d|------------------------------------------------------------------------|

  - gradually press down on pedal

  t     t     t    t    t    t    t    t    t
E|-----------------------------------------------|
B|-----------------------------------------------|
G|12-11-12-10-12-9-12-8-12-7-12-6-12-5-12-4-12-3-|
D|-----------------------------------------------|
A|-----------------------------------------------|
d|-----------------------------------------------|

Verse:


E|-------------------------------------------------------------------------------------------------|
B|66-xx-66-xx-66-xx-66-xx-88-xx-88-xx-88-xx-88-xx-66-xx-66-xx-66-xx-66-xx-88-xx-88-xx-88-xx-88-xx--|
G|77-xx-77-xx-77-xx-77-xx-77-xx-77-xx-77-xx-77-xx-55-xx-55-xx-55-xx-55-xx-77-xx-77-xx-77-xx-77-xx--|
D|77-xx-77-xx-77-xx-77-xx-88-xx-88-xx-88-xx-88-xx-77-xx-77-xx-77-xx-77-xx-88-xx-88-xx-88-xx-88-xx--|
A|55-xx-55-xx-55-xx-55-xx-------------------------00-xx-00-xx-00-xx-00-----------------------------|
d|-------------------------------------------------------------------------------------------------|


E|------------------------------------------------55----55----55----55------------------------------------|
B|66-xx-66-xx-66-xx-66-xx-88-xx-88-xx-88-xx-88-xx-66-xx-66-xx-66-xx-66-xx-88-xx-88-xx-88-xx-88-xx-55-xx-55|
G|77-xx-77-xx-77-xx-77-xx-77-xx-77-xx-77-xx-77-xx-55-xx-55-xx-55-xx-55-xx-77-xx-77-xx-77-xx-77-xx-66-xx-66|
D|77-xx-77-xx-77-xx-77-xx-88-xx-88-xx-88-xx-88-xx-77-xx-77-xx-77-xx-77-xx-88-xx-88-xx-88-xx-88-xx-77-xx-77|
A|55-xx-55-xx-55-xx-55-xx-------------------------00-xx-00-xx-00-xx-00------------------------------------|
d|--------------------------------------------------------------------------------------------------------|

Bridge
                     (DRONES!)             [KILLED BY]
E|------------------------------------------------|
B|------------------------------------------------|
G|------------------------------------------------|
D|--------------------------------------------5/6-|
A|--5-3-0-3-0---------0-------5-3-0-3-0-------3/4-|
d|0-----------5-3-0-0---0---0-----------5-3-0-----|

                     (DRONES!)             [KILLED BY]
E|------------------------------------------------|
B|------------------------------------------------|
G|------------------------------------------------|
D|--------------------------------------------3/4-|
A|--5-3-0-3-0---------0-------5-3-0-3-0-------3/4-|
d|0-----------5-3-0-0---0---0-----------5-3-0-3/4-|


Chorus (x2)

E|----------------------------------------------------------------|
B|----------------------------------------------------------------|
G|----------------------------------------------------------------|
D|----------------------------------------------------------------|
A|------------------------------------------------------------3\2-|
d|3-5-555-3h5---2-3-333-2h3---8-10-101010-9h10-------3-5-555--3\2-|


Bridge 2:

E|--------------------------------------------------|
B|--------------------------------------------------|
G|--------------------------------------------------|
D|--------------------------------------------------|
A|-5-3-0-3-0---------0--------5-3-0-3-0---------0---|
d|-----------5-3-0-0---0----------------5-3-0-0---0-|


E|------------------------------------------------|
B|------------------------------------------------|
G|------------------------------------------------|
D|--------------------------------------------5/6-|
A|--5-3-0-3-0---------0-------5-3-0-3-0-------3/4-|
d|0-----------5-3-0-0---0---0-----------5-3-0-----|

Solo:

With whammy (+ve)

strike above nut
  + \\\\\ -                               +-    +-                      +-  +-
E|*---------------------------------------------------------------------------------|
B|*--------13~----------------------------------------------------------------------|
G|*-----------10~------------------------------13~~------------------------13~~-----|
D|*---------------12-10h12p10--------------13~~----13~~-----------------------------|
A|*---------------------------10h12p10-11~~------------10h11p10-8-10-11~~-----------|
d|*---------------------------------------------------------------------------------|

E|-------12---------------------------|
B|-----12--12-15b17(17)13h15p13-------|
G|14b16-------------------------------|      whammy nonsese
D|------------------------------------|
A|------------------------------------|
d|------------------------------------|

+ve                        -

E|-----7tr9-----------------------------------7----|
B|8tr10----8tr10-----------------------8-9-10---10-|
G|----------------9-7------------7-8-9-------------|
D|--------------------9-8--7-8-9-------------------|
A|-------------------------------------------------|
d|-------------------------------------------------|

E|-----15-----15-----------10-----10-------------15-17-18-17h18h17\15-----|
B|---------------------------------------15-17-18-------------------------|
G|16h17--16h17--16h17-11h12--11h12--11h12---------------------------------|
D|------------------------------------------------------------------------|
A|------------------------------------------------------------------------|
d|------------------------------------------------------------------------|

E|-----17-----17-----------13-----13----------------17-18-17h18h17---17-18-20-|
B|---------------------------------------15-17-18-20--------------20----------|
G|18h19--18h19--18h19-14h15--14h15--14h15-------------------------------------|
D|----------------------------------------------------------------------------|
A|----------------------------------------------------------------------------|
d|----------------------------------------------------------------------------|

E|20b(22)(22)(22)(22)r20-20-19-20-19-19-19-19-19-19-17-19-20-20-20-20-20--|
B|------------------------------------------------------------------------|
G|------------------------------------------------------------------------|
D|------------------------------------------------------------------------|
A|------------------------------------------------------------------------|
d|------------------------------------------------------------------------|

E|20-20-19-20-19-19-19-19-|
B|------------------------|
G|------------------------|
D|------------------------|
A|------------------------|
d|------------------------|

 +  - + - +            - + - +         - + - +

E|---------------------------------------------------------------|
B|---------------------------------------------------------------|
G|12--12--12-10-9-12-10--10--10-9-7-10-9--9--9-7-5-9-7-5-5h7p5-4-|
D|---------------------------------------------------------------|
A|---------------------------------------------------------------|
d|---------------------------------------------------------------|

tremelo picking
 +  - + - +            - + - +              - + - +
E|15-----15-13-12-15-13-------13-12-10-13-12-------12-10-8-12-10-8-8h10p8\7-|
B|--------------------------------------------------------------------------|
G|--------------------------------------------------------------------------|
D|--------------------------------------------------------------------------|
A|--------------------------------------------------------------------------|
d|--------------------------------------------------------------------------|


Chorus (x2)

E|-----------------------------------------------------------------------|
B|-----------------------------------------------------------------------|
G|-----------------------------------------------------------------------|
D|-----------------------------------------------------------------------|
A|3-5-555-555-555-2-3-333-333-333-8-10-101010-101010-101010-3-5-555--3\2-|
d|3-5-555-555-555-2-3-333-333-333-8-10-101010-101010-101010-3-5-555--3\2-|

 (alternate picking)
E|--------15--------------15---------------13--------------13-------|
B|----15----15--15----15----15--15-----13----13--13----13----13--13-|
G|--16--16----16----16--16----16-----14--14----14----14--14----14---|
D|17--------------17---------------15--------------15---------------|
A|------------------------------------------------------------------|
d|------------------------------------------------------------------|

E|--------12--------------12---------------------------------------------------------|
B|----13----13--13----13----13--13-----12--15-12--12----12--15-12--12----------------|
G|--12--12----12----12--12----12-----12--12-----12----12--12-----12------------------|
D|14--------------14---------------12---------------12----------------15-15h17p15\14-|
A|-----------------------------------------------------------------------------------|
d|-----------------------------------------------------------------------------------|

E|--------15--------------15---------------13--------------13-------|
B|----15----15--15----15----15--15-----13----13--13----13----13--13-|
G|--16--16----16----16--16----16-----14--14----14----14--14----14---|
D|17--------------17---------------15--------------15---------------|
A|------------------------------------------------------------------|
d|------------------------------------------------------------------|

E|--------12--------------12-------------------------------------------------------------------|
B|----13----13--13----13----13--13-----12--15-12--12----12--15-12--12--------------------------|
G|--12--12----12----12--12----12-----12--12-----12----12--12-----12----------------------------|
D|14--------------14---------------12---------------12----------------15-15h17p15\14\12~~~~~~--|
A|---------------------------------------------------------------------------------------------|
d|---------------------------------------------------------------------------------------------|

Outro: (HERE COME THE DRONES!)

E|------------------------------------|
B|------------------------------------|
G|------------------------------------|    (x2)
D|------------------------------------|
A|------------------------------------|
d|12-0-3-0-45-0-6-0-78-0-9-0-10-11----|

E|------------------------------------|
B|------------------------------------|
G|------------------------------------|    (x6)
D|------------------------------------|
A|12-0-3-0-45-0-6-0-78-0-9-0-10-11----|
d|12-0-3-0-45-0-6-0-78-0-9-0-10-11----|

E|-------------|
B|-------------|
G|-------------|
D|0------------|
A|0--(let ring)|
d|0------------|
Добавлено: 19.09.2015
Другие материалы по этой песне:

Страница создана 19.09.2015
http://primanota.ru/muse/reapers-live-chords.htm
Привет, Гость.
Предлагаем пройти революционный курс по гитаре.
Подарок от PrimaNota.Ru, забирай!