PrimaNota.ru - самый крупный в мире бесплатный архив песенных текстов, аккордов, табулатур и нот


Muse - Lies Chvrches Cover - таба, видео

Регистрация Запомнить меня
Войти через:  Facebook Google Twitter Vk Yandex Mail.ru

Muse - Lies Chvrches Cover - таба, видео

Печатать
Просмотров: 125
-------------------------------------------------------------------------------
                  Lies ( CHVRCHES Cover ) - Muse
-------------------------------------------------------------------------------
Tabbed by: Muser00
E-mail: Muser@outlook.it

Tuning: Standard (EADGBe)

Intro

e|---------------------------------------------------------------------|
B|-----------------------------------------------12-12-12-12-----------|
G|--12~---12-x-12-12-12---12~---12-x-12-12-12--x-x--x--x--x--10~-------|
D|--x-----x--x-x--x--x----x-----x--x-x--x--x---x-x--x--x--x--x---------|
A|--10~---10-x-10-10-10---10~---10-x-10-10-10--x-10-10-10-10-10~-------|
E|---------------------------------------------------------------------|

e|---------------------------------------------------------------------|
B|--------------------12-12-12-12-12-x---------------------------------|
G|--x-12-x-12-12-12-x-x--x--x--x--x--x-10~--x-12-x-12-12-12------------|
D|--x-x--x-x--x--x--x-x--x--x--x--x--x-x----x-x--x-x--x--x-------------|
A|--x-10-x-10-10-10-x-10-10-10-10-10-x-10~--x-10-x-10-10-10------------|
E|---------------------------------------------------------------------|

1° Chorus 0:59

e|------------------------------------------------------------------------------------------|
B|------------------------------------------------------------------------------------------|
G|------------------------------------------------------------------------------------------|
D|--------------------------------5--9--9/10--10-10--9/10--10-10--9/10--10-10--9/10--10-10--|
A|---------2---------2---------2--5--9--9/10--10-10--9/10--10-10--9/10--10-10--9/10--10-10--|
E|-0-0-0-0---0-0-0-0---0-0-0-0----3--7--7/8---8--8---7/8---8--8---7/8---8--8---7/8---8--8---|

e|---------------------------------------------------------------------------|
B|---------------------------------------------------------------------------|
G|---------------------------------------------------------------------------|
D|-12--12-12-12--12--12-12-12--12--12-12-12--14\\9-9/10--10-10-10-10-10------|
A|-12--12-12-12--12--12-12-12--12--12-12-12--14\\9-9/10--10-10-10-10-10------|
E|-10--10-10-10--10--10-10-10--10--10-10-10--12\\7-7/8---8--8--8--8--8-------|

e|------------------------------------------------------------------------------------------|
B|------------------------------------------------------------------------------------------|
G|------------------------------------------------------------------------------------------|
D|--------------------------------5--9--9/10--10-10--9/10--10-10--9/10--10-10--9/10--10-10--|
A|---------2---------2---------2--5--9--9/10--10-10--9/10--10-10--9/10--10-10--9/10--10-10--|
E|-0-0-0-0---0-0-0-0---0-0-0-0----3--7--7/8---8--8---7/8---8--8---7/8---8--8---7/8---8--8---|

e|---------------------------------------------------------------------------|
B|---------------------------------------------------------------------------|
G|---------------------------------------------------------------------------|
D|-12--12-12-12--12--12-12-12--12--12-12-12--14\\9-9/10--10-10-10-10-10------|
A|-12--12-12-12--12--12-12-12--12--12-12-12--14\\9-9/10--10-10-10-10-10------|
E|-10--10-10-10--10--10-10-10--10--10-10-10--12\\7-7/8---8--8--8--8--8-------|

2° Chorus 1:54

e|------------------------------------------------------------------------------------------|
B|------------------------------------------------------------------------------------------|
G|------------------------------------------------------------------------------------------|
D|--------------------------------5--9--9/10--10-10--9/10--10-10--9/10--10-10--9/10--10-10--|
A|---------2---------2---------2--5--9--9/10--10-10--9/10--10-10--9/10--10-10--9/10--10-10--|
E|-0-0-0-0---0-0-0-0---0-0-0-0----3--7--7/8---8--8---7/8---8--8---7/8---8--8---7/8---8--8---|

e|---------------------------------------------------------------------------|
B|---------------------------------------------------------------------------|
G|---------------------------------------------------------------------------|
D|-12--12-12-12--12--12-12-12--12--12-12-12--14\\9-9/10--10-10-10-10-10------|
A|-12--12-12-12--12--12-12-12--12--12-12-12--14\\9-9/10--10-10-10-10-10------|
E|-10--10-10-10--10--10-10-10--10--10-10-10--12\\7-7/8---8--8--8--8--8-------|

e|------------------------------------------------------------------------------------------|
B|------------------------------------------------------------------------------------------|
G|------------------------------------------------------------------------------------------|
D|--------------------------------5--9--9/10--10-10--9/10--10-10--9/10--10-10--9/10--10-10--|
A|---------2---------2---------2--5--9--9/10--10-10--9/10--10-10--9/10--10-10--9/10--10-10--|
E|-0-0-0-0---0-0-0-0---0-0-0-0----3--7--7/8---8--8---7/8---8--8---7/8---8--8---7/8---8--8---|

e|---------------------------------------------------------------------------|
B|---------------------------------------------------------------------------|
G|-9-9-9-9-9-9/11-11-11-11-11-11-11-11-11-11-12-12-12-12-12-12-12-12---------|
D|-x-x-x-x-x-x/x--x--x--x--x--x--x--x--x--x--x--x--x--x--x--x--x--x----------|
A|-7-7-7-7-7-7/9--9--9--9--9--9--9--9--9--9--10-10-10-10-10-10-10-10---------|
E|---------------------------------------------------------------------------|

Mini-Solo 2:32

e|---------------------------------------------------------------------------|
B|--10~--10-10-10-10-10b11br10-8b10br8+----x-10~~~~-10h8-8~~~~---------------|
G|---------------------------------------------------------------------------|
D|---------------------------------------------------------------------------|
A|---------------------------------------------------------------------------|
E|---------------------------------------------------------------------------|

3° Chorus 2:49

e|------------------------------------------------------------------------------------------|
B|------------------------------------------------------------------------------------------|
G|------------------------------------------------------------------------------------------|
D|--------------------------------5--9--9/10--10-10--9/10--10-10--9/10--10-10--9/10--10-10--|
A|---------2---------2---------2--5--9--9/10--10-10--9/10--10-10--9/10--10-10--9/10--10-10--|
E|-0-0-0-0---0-0-0-0---0-0-0-0----3--7--7/8---8--8---7/8---8--8---7/8---8--8---7/8---8--8---|

e|---------------------------------------------------------------------------|
B|---------------------------------------------------------------------------|
G|---------------------------------------------------------------------------|
D|-12--12-12-12--12--12-12-12--12--12-12-12--14\\9-9/10--10-10-10-10-10------|
A|-12--12-12-12--12--12-12-12--12--12-12-12--14\\9-9/10--10-10-10-10-10------|
E|-10--10-10-10--10--10-10-10--10--10-10-10--12\\7-7/8---8--8--8--8--8-------|

e|------------------------------------------------------------------------------------------|
B|------------------------------------------------------------------------------------------|
G|------------------------------------------------------------------------------------------|
D|--------------------------------5--9--9/10--10-10--9/10--10-10--9/10--10-10--9/10--10-10--|
A|---------2---------2---------2--5--9--9/10--10-10--9/10--10-10--9/10--10-10--9/10--10-10--|
E|-0-0-0-0---0-0-0-0---0-0-0-0----3--7--7/8---8--8---7/8---8--8---7/8---8--8---7/8---8--8---|

e|---------------------------------------------------------------------------|
B|---------------------------------------------------------------------------|
G|-9-9-9-9-9-9/11-11-11-11-11-11-11-11-11-11-12-12-12-12-12-12-12-12---------|
D|-x-x-x-x-x-x/x--x--x--x--x--x--x--x--x--x--x--x--x--x--x--x--x--x----------|
A|-7-7-7-7-7-7/9--9--9--9--9--9--9--9--9--9--10-10-10-10-10-10-10-10---------|
E|---------------------------------------------------------------------------|

Outro

e|---------------------------------------------------------------------------|x4
B|---------------------------------------------------------------------------|
G|---------------------------------------------------------------------------|
D|---------------------------------------------------------------------------|
A|---------7---------7----------7--------------------------------------------|
E|-0-0-0-0---0-0-0-0---0-0-0-0----0-0-0-0-12\\\\\\0--------------------------|


************************************

| /   slide up
| \   slide down
| h   hammer-on
| p   pull-off
| ~   vibrato
| +   harmonic
| x   Mute note
| b   Bend
| pb  Pre-bend
| br  Bend release
| pbr Pre-bend release
| brb Bend release bend

************************************
Добавлено: 25.04.2016
Другие материалы по этой песне:
  • Аккорды и текст

Страница создана 25.04.2016
http://primanota.ru/muse/lies-chvrches-cover-chords.htm
Привет, Гость.
Предлагаем пройти революционный курс по гитаре.
Подарок от PrimaNota.Ru, забирай!