PrimaNota.ru - самый крупный в мире бесплатный архив песенных текстов, аккордов, табулатур и нот


Muse - Minimum Live - таба, видео

Регистрация Запомнить меня
Войти через:  Facebook Google Twitter Vk Yandex Mail.ru

Muse - Minimum Live - таба, видео

Печатать
Просмотров: 148
-------------------------------------------------------------------------------
                             Minimum Live - Muse
-------------------------------------------------------------------------------
Tabbed by: Bruno Castanheira (brunocastanheir)
E-mail: 1brunocastanheira@gmail.com

 
Minimum live tab from Eurockeennes 2000.



Tuning: Standard

*******************
/ = Slide
x = Mute note
~ = Vibrato
PB = Pre-bend
*******************

INTRO (Guitar Clean):
e|0/11---------10------10-|
B|0/11-------0-------0----|
G|0/11-11-11------11------|
D|------------------------|
A|------------------------|
E|------------------------| 

Repeat 3x
e|--------------12------12-|--------------12------12-|
B|------------0-------0----|------------0-------0----|
G|11-11/12-12------12------|12-12/13-13------13------|
D|-------------------------|-------------------------|
A|-------------------------|-------------------------|
E|-------------------------|-------------------------|

e|--------------14------14-|--------------12------12-|
B|------------0-------0----|------------0-------0----|
G|13-13/14-14------14------|14-14/13-13------13------| 
D|-------------------------|-------------------------|
A|-------------------------|-------------------------|
E|-------------------------|-------------------------|

e|--------------12------12-|--------------10------10-|
B|------------0-------0----|------------0-------0----|
G|13-13/12-12------12------|12-12/11-11------11------|
D|-------------------------|-------------------------|
A|-------------------------|-------------------------|
E|-------------------------|-------------------------| 

Final part:
e|--------------12------12-|--------------12------12-|
B|------------0-------0----|------------0-------0----|
G|11-11/12-12------12------|12-12/13-13------13------|
D|-------------------------|-------------------------|
A|-------------------------|-------------------------|
E|-------------------------|-------------------------|

e|--------------14------14-|--------------12------12-|---------12-|
B|------------0-------0----|------------0-------0----|---------0--|
G|13-13/14-14------14------|14-14/13-13------13------|13-13/12-12-|
D|-------------------------|-------------------------|------------|
A|-------------------------|-------------------------|------------|
E|-------------------------|-------------------------|------------|



CHORUS:
(Fuzz Dist) 
e|xxxxxx---------|
B|xxxxxx---------|
G|xxxxxx---------|
D|xxxxxx---------|
A|xxxxxx-2-------|
E|xxxxxx---0-1-2-|

e|-------------|
B|-------------|
G|-------------|
D|-------------|
A|0-1-2--------|
E|------00-11-2|Repeat 7x


REPEAT THE INTRO AGAIN.


CHORUS 2:
(Fuzz Dist)
e|xxxx-xxxxxxxx---------|
B|xxxx-xxxxxxxx---------|
G|xxxx-xxxxxxxx---------|
D|xxxx-xxxxxxxx---------|
A|xxxx-xxxxxxxx-2-------|
E|xxxx-xxxxxxxx---0-1-2-|


e|---------------|
B|---------------|
G|---------------|
D|---------------|
A|0-1-2----------|
E|-------00-11-2-|Repeat 7x

e|0---------|---------------|--------------|
B|0---------|---------------|--------------|
G|0---------|---------------|--------------|
D|0---------|---------------|--------------|
A|0-2-------|-0-1-2---------|0-1-2---------|
E|0---0-1-2-|-------00-11-2-|------00-11-2-|

e|----------------|-----------------|
B|----------------|-----------------|
G|------------2-4-|--------2-4-4pb~-|
D|------0-2-3-----|--0-2-3----------|
A|0-1-2-----------|2----------------|
E|----------------|-----------------|

e|xxx-xx-xx-xxx-x-|
B|xxx-xx-xx-xxx-x-|
G|xxx-xx-xx-xxx-x-|
D|xxx-xx-xx-xxx-x-|
A|xxx-xx-xx-xxx-x-|
E|xxx-xx-xx-xxx-x-|Reapeat 4x

e|----------|
B|----------|
G|----------|
D|----------|
A|2---------|
E|--00-11-2-|

e|---------------|
B|---------------|
G|---------------|
D|---------------|
A|0-1-2----------|
E|-------00-11-2-|Repeat 4x

e|-------------|
B|-------------|
G|-------------|
D|-------------|
A|12pb---------|
E|-----00-11-2-|

e|-----------------|
B|-----------------|
G|-----------------|
D|-----------------|
A|0-1-12pb---------|
E|---------00-11-2-|Repeat 4x

THE END

this is my first tab, i'm sorry for any error...
Hope you guys like it!
Добавлено: 28.05.2015
Другие материалы по этой песне:
  • Аккорды и текст

Страница создана 28.05.2015
http://primanota.ru/muse/minimum-live-chords.htm
Привет, Гость.
Предлагаем пройти революционный курс по гитаре.
Подарок от PrimaNota.Ru, забирай!