PrimaNota.ru - самый крупный в мире бесплатный архив песенных текстов, аккордов, табулатур и нот


Muse - Drones (album) - бас-таба, видео

Регистрация Запомнить меня
Войти через:  Facebook Google Twitter Vk Yandex Mail.ru

Muse - Drones (album) - бас-таба, видео

Печатать
Просмотров: 186
-------------------------------------------------------------------------------
                             Drones - Muse
-------------------------------------------------------------------------------
Tabbed by: Muser00  and Poinkypo ( Reapers tab )

-------------------------------------------------------------------------------
                               Dead Inside 
-------------------------------------------------------------------------------

Tuning: Standard

Verse

G|--5--5-------5--5-------8--8-------3--3---|x4
D|------------------------------------------|
A|-3-33-33----3-33-33----6-66-66----1-11-11-|
E|------------------------------------------|

Chorus

G|------------------------5--5-------3--3---|
D|--6--6-------5--5-------------------------|
A|-----------------------3-33-33----1-11-11-|
E|-4-44-44----3-33-33-----------------------|

G|--------------------------------------------------|
D|--6--6-------5--5-------3--3-------6--6----8--8---|
A|--------------------------------------------------|
E|-4-44-44----3-33-33----1-11-11----4-44-44-6-66-66-|

Solo

G|--5--5-------5--5-------8--8-------3--3---|x2
D|------------------------------------------|
A|-3-33-33----3-33-33----6-66-66----1-11-11-|
E|------------------------------------------|

Verse

G|--5--5-------5--5-------8--8-------3--3---|x4
D|------------------------------------------|
A|-3-33-33----3-33-33----6-66-66----1-11-11-|
E|------------------------------------------|

Chorus

G|------------------------5--5-------3--3---|
D|--6--6-------5--5-------------------------|
A|-----------------------3-33-33----1-11-11-|
E|-4-44-44----3-33-33-----------------------|

G|------------------------------------------|
D|--6--6-------5--5-------3--3-------6--6---|
A|------------------------------------------|
E|-4-44-44----3-33-33----1-11-11----4-44-44-|

Bridge

G|-----------------------------------------------|
D|-----------------------------------------------|
A|-3-3333-3-3------------6-6666-6-6--------------|
E|------------4-4444-4-4------------6-6666-6-636-|

G|-5-5555-5-5------------------------------------|
D|------------6-6666-6-6-------------------------|
A|-----------------------6-6666-6-6--------------|
E|----------------------------------6-6666-6-636-|

G|-----------------------------------------------|
D|------------6-6666-6-6-------------------------|
A|-3-3333-3-3------------6-6666-6-6--------------|
E|----------------------------------6-6666-6-636-|

G|-5-5555-5-5------------------------------------|
D|------------6-6666-6-6-------------------------|
A|-----------------------6-6666-6-6--------------|
E|----------------------------------6-6666-6-636-|

G|---------------------------------------------------------------------|
D|------------------6666666666666666-----------------------------------|
A|-3333333333333333------------------6666666666666666------------------|
E|----------------------------------------------------6666666666666636-|

G|-5555555555555555----------------------------------------------------|
D|------------------6666666666666666-----------------------------------|
A|-----------------------------------6666666666666666------------------|
E|----------------------------------------------------6666666666666666-|

Outro

G|-------------------------5---5-----3---3-|x2
D|-----6---6-----5---5---------------------|
A|---------------------3-33-33---1-11-11---|
E|-4-44-44---3-33-33-----------------------|

G|-----------------------------5-----------3------|
D|-----6-----------5---------------/10---------/8-|
A|---------/11---------/10-3-33-33-----1-11-11----|
E|-4-44-44-----3-33-33----------------------------|

G|--------------------------------------------|
D|-----6-----------5-----------3----------6---|
A|---------/11---------/10---------/8---------|
E|-4-44-44-----3-33-33-----1-11-11----4-44-44-|


-------------------------------------------------------------------------------                               
                            [Drill Sergeant] + Psycho
-------------------------------------------------------------------------------

Tuning: Drop D

Intro ( Bass start at 0:19 ) ( with Drill Sergent intro at 0:40 )

G|-------------------------------| x2
D|-12-12-12-12-12-12-12-12-12-12-|
A|-------------------------------|
D|-------------------------------|

G|-------------------------|-------------|
D|-------------------------|-------------|
A|-------------------------|-------------|
D|-0-3-05-03-0-030-5b7-5b7-|-0-3-05-03-0-|

G|-------------------------|-------------------------|
D|-------------------------|-------------------------|
A|-------------------------|-------------------------|
D|-0-3-05-03-0-030-5b7-5b7-|-0-3-05-03-0-0p4-0p5-0p6-|

G|----------------------------------------------|
D|----------------------------------------------|
A|---------------------------------------3---4--|
D|-7-87-11-7-87-7-87-11-7-87-5-75-875-3-3-2-2-2-|

Bass Solo

G|-\70-6-----------------------------|
D|-------8-7-503-2-1-----------------|
A|-------------------504-1-0---------|
D|---------------------------503-2-1-|

Verse

G|---------|---------|---------|---------|---------|---------|---------|---------| x2
D|---------|---------|---------|---------|---------|---------|---------|---------|
A|-5-55-55-|-5-55-55-|-5-55-55-|-5-55-55-|-8-88-88-|-3-33-33-|---------|---------|
D|---------|---------|---------|---------|---------|---------|-5-55-55-|-5-55-55-|

Pre-Chorus

G|---------|---------|---------|
D|---------|---------|---------|
A|-5-55-55-|-5-55-55-|-5-55-55-|
D|---------|---------|---------|

G|-------------------------|-------------|
D|-------------------------|-------------|
A|-------------------------|-------------|
D|-0-3-05-03-0-030-5b7-5b7-|-0-3-05-03-0-|

G|-------------------------|-------------------------|
D|-------------------------|-------------------------|
A|-------------------------|-------------------------|
D|-0-3-05-03-0-030-5b7-5b7-|-0-3-05-03-0-0p4-0p5-0p6-|

Chorus

G|----------------------------------------------|
D|----------------------------------------------|
A|---------------------------------------3---4--|
D|-7-87-11-7-87-7-87-11-7-87-5-75-875-3-3-2-2-2-|

Bass Solo 

G|-\70-6-----------------------------|
D|-------8-7-503-2-1-----------------|
A|-------------------504-1-0---------|
D|---------------------------503-2-1-|

Verse 2


G|---------|---------|---------|---------|---------|---------|---------|---------| x2
D|---------|---------|---------|---------|---------|---------|---------|---------|
A|-5-55-55-|-5-55-55-|-5-55-55-|-5-55-55-|-8-88-88-|-3-33-33-|---------|---------|
D|---------|---------|---------|---------|---------|---------|-5-55-55-|-5-55-55-|

Pre-Chorus 2

G|---------|---------|---------|
D|---------|---------|---------|
A|-5-55-55-|-5-55-55-|-5-55-55-|
D|---------|---------|---------|

G|-------------------------|-------------|
D|-------------------------|-------------|
A|-------------------------|-------------|
D|-0-3-05-03-0-030-5b7-5b7-|-0-3-05-03-0-|

G|-------------------------|-------------------------|
D|-------------------------|-------------------------|
A|-------------------------|-------------------------|
D|-0-3-05-03-0-030-5b7-5b7-|-0-3-05-03-0-0p4-0p5-0p6-|

Chorus 2

G|----------------------------------------------|
D|----------------------------------------------|
A|---------------------------------------3---4--|
D|-7-87-11-7-87-7-87-11-7-87-5-75-875-3-3-2-2-2-|

Bass Solo 

G|-\70-6---------------------------------------------------------------------|
D|-------8-7-503-2-1-------------------------------------2-3-5-667-10-11-12/-|
A|-------------------504-1-0--------------------0-2-3-55---------------------|
D|---------------------------503-2-1-002-3-5-66------------------------------|

No bass for 4 measures

Pre-Chorus 3

G|---------|---------|---------|
D|---------|---------|---------|
A|---------|---------|---------|
D|-0-00-00-|-0-00-00-|-0-00-00-|

G|-------------------------|-------------|
D|-------------------------|-------------|
A|-------------------------|-------------|
D|-0-3-05-03-0-030-5b7-5b7-|-0-3-05-03-0-|

G|-------------------------|-------------------------|
D|-------------------------|-------------------------|
A|-------------------------|-------------------------|
D|-0-3-05-03-0-030-5b7-5b7-|-0-3-05-03-0-0p4-0p5-0p6-|

Chorus 3

G|----------------------------------------------|
D|----------------------------------------------|
A|---------------------------------------3---4--|
D|-7-87-11-7-87-7-87-11-7-87-5-75-875-3-3-2-2-2-|

Pre-Solo

G|------------------------| x2
D|------------------------|
A|------------------------|
D|----------------5b7-5b7-|

G|------------------------|-------------------------------|x2
D|------------------------|-12-12-12-12-12-12-12-12-12-12-|
A|------------------------|-------------------------------|
D|------------------------|-------------------------------|

Solo

G|-------------------------|---------------------------|-------------------------|
D|-------------------------|---------------------------|-------------------------|
A|-------------------------|---------------------------|-------------------------|
D|-0-3-05-03-0-030-5b7-5b7-|-0-3-05-03-0-030-8b10-8b10-|-0-3-05-03-0-030-7b9-7b9-|

G|--------------------------|-------------------------|---------------------------|
D|--------------------------|-------------------------|---------------------------|
A|--------------------------|-------------------------|---------------------------|
D|-0-3-05-03-0-030-8b10-8b10|-0-3-05-03-0-030-7b9-7b9-|-0-3-05-03-0-030-8b10-8b10-|

G|----------------------------|-------------------------|
D|----------------------------|-------------------------|
A|----------------------------|-------------------------|
D|-0-3-05-03-0-030-10b12-10b12|-0-3-05-03-0-0p4-0p5-0p6-|

Chorus 4

G|---------------------------------------------------|
D|---------------------------------------------------|
A|---------------------------------------------------|
D|-7-87-11-7-87-7-87-11-7-87-5-75-8-5-75-5-75-8-5-75-|

G|------------------------------------------|
D|------------------------------------------|
A|---------------------------------------3--|
D|-7-87-11-7-87-7-87-11-7-87-5-75-875-3-3-2-|

Outro


G|-\70-6--------------------------------|
D|-------8-7-503-2-1--------------------|
A|-------------------504-1-0------------|
D|---------------------------503-2-1-0~-|

                                   
-------------------------------------------------------------------------------                               
                                  Mercy
-------------------------------------------------------------------------------


Tuning: Standard

Intro

G|-----5-----------------12--------------------9---------------7----7-7-6-|x2
D|-----------------------------------12----------------9------------------|
A|-3-3---3-3-2-3-5-10-10----10-10-10----10-7-7---7-7-7---7-5-5--5-5-------|
E|------------------------------------------------------------------------|

Verse

G|-----5-----------------12--------------------9---------------7----7-7-6-|x4
D|-----------------------------------12----------------9------------------|
A|-3-3---3-3-2-3-5-10-10----10-10-10----10-7-7---7-7-7---7-5-5--5-5-------|
E|------------------------------------------------------------------------|

Pre-Chorus

G|-----------------------------------------------------------------|
D|-----------------------------------------------------------------|
A|-3-3-3-3-3-3-3-3---------------------------------5-5-5-5-5-5-5-5-|
E|-----------------3-3-3-3-3-3-3-3-0-0-0-0-0-0-0-0-----------------|

G|-----------------------------------------------------------------|
D|-----------------------------------------------------------------|
A|-3-3-3-3-3-3-3-3-----------------7-7-7-7-7-7-7-7-5-5-5-5-5-5-5-5-|
E|-----------------3-3-3-3-3-3-3-3---------------------------------|

Chorus

G|-----------------------------------------------------------------|
D|-----------------------------------------------------------------|
A|-3-3-3-3-3-3-3-3---------------------------------5-5-5-5-5-5-5-5-|
E|-----------------3-3-3-3-3-3-3-3-0-0-0-0-0-0-0-0-----------------|

G|----------------------------------------------------|
D|----------------------------------------------------|
A|-3-3-3-3-3-3-3-3-----------------7-7-7-7-7-7-7-7-5~-|
E|-----------------3-3-3-3-3-3-3-3--------------------|

Bass Variation

G|-----5-----------------------------12----------16-------17-17-16-------14-------------|
D|-----------------------12----------------14-14----14-14----------12-12----12-12-------|
A|-3-3---3-3-7-8-9-10-10----10-10-10----10----------------------------------------5-5-4-|
E|--------------------------------------------------------------------------------------|

Verse

G|-----5-----------------12--------------------9---------------7----7-7-6-|x4
D|-----------------------------------12----------------9------------------|
A|-3-3---3-3-2-3-5-10-10----10-10-10----10-7-7---7-7-7---7-5-5--5-5-------|
E|------------------------------------------------------------------------|

Pre-Chorus

G|-----------------------------------------------------------------|
D|-----------------------------------------------------------------|
A|-3-3-3-3-3-3-3-3---------------------------------5-5-5-5-5-5-5-5-|
E|-----------------3-3-3-3-3-3-3-3-0-0-0-0-0-0-0-0-----------------|

G|-----------------------------------------------------------------|
D|-----------------------------------------------------------------|
A|-3-3-3-3-3-3-3-3-----------------7-7-7-7-7-7-7-7-5-5-5-5-5-5-5-5-|
E|-----------------3-3-3-3-3-3-3-3---------------------------------|

Chorus

G|-----------------------------------------------------------------|
D|-----------------------------------------------------------------|
A|-3-3-3-3-3-3-3-3---------------------------------5-5-5-5-5-5-5-5-|
E|-----------------3-3-3-3-3-3-3-3-0-0-0-0-0-0-0-0-----------------|

G|----------------------------------------------------|
D|----------------------------------------------------|
A|-3-3-3-3-3-3-3-3-----------------7-7-7-7-7-7-7-7-5~-|
E|-----------------3-3-3-3-3-3-3-3--------------------|

Bridge

G|----------------------------|x7
D|----------------------------|
A|-10-10-10-10-10-10-10-10-10-|
E|----------------------------|

G|---------------------------|
D|---------------------------|
A|-10-10-10-10-10-10-9-10-12-|
E|---------------------------|

Bass Solo

G|----------------17----------------------16----------------------16----------------------14-------|
D|-------17-------------17-------17-------------17-------17-------------17-------16-------------16-|
A|-15-15----15-15----15----14-14----14-14----14----14-14----14-14----14----12-12----12-12----12----|
E|-------------------------------------------------------------------------------------------------|

G|----------------12----------------------12----------------------12------------------11------|
D|-------14-------------14-------12-------------12-------12-------------12-----12----------12-|
A|-10-10----10-10----10----10-10----10-10----10----10-10----10-10----10----9-9----9-9----9----|
E|--------------------------------------------------------------------------------------------|

G|------------9----------------7---------------7---------------7-----|
D|-----10---------10-0-0-9-0-0---0-9-----9---------9-----7---------7-|
A|-7-7----7-7---7--------------------7-7---7-7---7---5-5---5-5---5---|
E|-------------------------------------------------------------------|

G|--------------------------------12-------------16-------17----16-------14-------------|
D|------------------------12------------12-14-14----14-14----14----12-12----12-12-------|
A|--3-3-3-3-3-7-8-9-10-10----10-10---10-------------------------------------------5-5-4-|
E|--------------------------------------------------------------------------------------|

Chorus

G|-----------------------------------------------------------------|
D|-----------------------------------------------------------------|
A|-3-3-3-3-3-3-3-3---------------------------------5-5-5-5-5-5-5-5-|
E|-----------------3-3-3-3-3-3-3-3-0-0-0-0-0-0-0-0-----------------|

G|-----------------------------------------------------------------|
D|-----------------------------------------------------------------|
A|-3-3-3-3-3-3-3-3-----------------7-7-7-7-7-7-7-7-5-5-5-5-5-5-5-5-|
E|-----------------3-3-3-3-3-3-3-3---------------------------------|

G|-----------------------------------------------------------------|
D|-----------------------------------------------------------------|
A|-3-3-3-3-3-3-3-3---------------------------------5-5-5-5-5-5-5-5-|
E|-----------------3-3-3-3-3-3-3-3-0-0-0-0-0-0-0-0-----------------|

G|-----------------------------------------------------------------|
D|-----------------------------------------------------------------|
A|-3-3-3-3-3-3-3-3-----------------7-7-7-7-7-7-7-7-5-5-5-5-5-5-5-5-|
E|-----------------3-3-3-3-3-3-3-3---------------------------------|

Outro

G|-------------------------------------------------|
D|-------------------------------------------------|
A|-3-3-3-2-2-2-7-7-7-5-5-5-10--9--3-3-3-2-2-2------|
E|--------------------------------------------0~~~-|

                                             
-------------------------------------------------------------------------------                               
                                  Reapers
-------------------------------------------------------------------------------


Tuning: Drop D

Intro 0:27

G|--------------------------------|
D|--------------------------------|
A|--------------------------------|
D|12\----10\----8\----7\---5\---3-|

Verse 

G|------------------------------------------------|-----------------------------------------------|
D|12-12-14-12-15-12-14-12-15-12-14-12-15-14-12-10-|---10-12-10-14-10-12-10-14-10-12-10-14-12-10-8-|
A|------------------------------------------------|-----------------------------------------------|
D|------------------------------------------------|-----------------------------------------------|

G|----------------------------------------|------------------------------------|
D|---8-10-8-12-8-10-8-12-8-10-8-12-10-8-7-|---7-8-7-11-7-8-7---7-8-7-11-7-8-12-|
A|----------------------------------------|------------------------------------|
D|----------------------------------------|------------------------------------|

G|------------------------------------------------|-----------------------------------------------|
D|---12-14-12-15-12-14-12-15-12-14-12-15-14-12-10-|---10-12-10-14-10-12-10-14-10-12-10-14-12-10-8-|
A|------------------------------------------------|-----------------------------------------------|
D|------------------------------------------------|-----------------------------------------------|

G|----------------------------------------|------------------------------------|
D|---8-10-8-12-8-10-8-12-8-10-8-12-10-8-7-|---7-8-7-11-7-8-7----7-8-7-11-7-8---|
A|----------------------------------------|------------------------------------|
D|----------------------------------------|------------------------------------|

Pre-Chorus 

G|--------------------------------|--------------------------------|
D|--------------------------------|--------------------------------|
A|--5-3-0-3-0---------5-----------|--5-3-0-3-0---------------------|
D|0-----------5-3-0-0---0---------|------------5-0-----------------|

G|--------------------------------|--------------------------------|
D|--------------------------------|--------------------------------|
A|--5-3-0-3-0---------5-----------|--5-3-0-3-0---------------------|
D|0-----------5-3-0-0---0---------|------------5-0-3------4--------|

Chorus 

G|--------------------------------|--------------------------------|
D|--------------------------------|--------------------------------|
A|--------------------------------|--------------------------------|
D|3-5-5-5-5-5-3-5-----------------|2-3-3-3-3-3-2-3-----------------|
                                                                     x2
G|--------------------------------|--------------------------------|
D|--------------------------------|--------------------------------|
A|1-3-3-3-3-3-1-3-----------------|--------------------------------|
D|--------------------------------|3-5-5-5-5-5-3-0-3------2--------|

Pre-Verse 

G|------------12-12-------------------12-12-------|------------12-12-------------------12-12-------|
D|------12-12-------12-12-------12-12-------12-12-|------13-13-------13-13-------13-13-------13-13-|
A|10-10-------------------10-10-------------------|10-10-------------------10-10-------------------|
D|------------------------------------------------|------------------------------------------------|

G|------------12-12-------------------12-12-------|------------------------------------------------|
D|------14-14-------14-14-------14-14-------14-14-|------------------------------------------------|
A|10-10-------------------10-10-------------------|------------------------------------------------|
D|------------------------------------------------|12\---------10\--------8\------7\-----5\----3---|
         
Verse 

G|------------------------------------------------|-----------------------------------------------|
D|12-12-14-12-15-12-14-12-15-12-14-12-15-14-12-10-|---10-12-10-14-10-12-10-14-10-12-10-14-12-10-8-|
A|------------------------------------------------|-----------------------------------------------|
D|------------------------------------------------|-----------------------------------------------|

G|----------------------------------------|------------------------------------|
D|---8-10-8-12-8-10-8-12-8-10-8-12-10-8-7-|---7-8-7-11-7-8-7---7-8-7-11-7-8-12-|
A|----------------------------------------|------------------------------------|
D|----------------------------------------|------------------------------------|

G|------------------------------------------------|-----------------------------------------------|
D|---12-14-12-15-12-14-12-15-12-14-12-15-14-12-10-|---10-12-10-14-10-12-10-14-10-12-10-14-12-10-8-|
A|------------------------------------------------|-----------------------------------------------|
D|------------------------------------------------|-----------------------------------------------|

G|----------------------------------------|------------------------------------|
D|---8-10-8-12-8-10-8-12-8-10-8-12-10-8-7-|---7-8-7-11-7-8-7----7-8-7-11-7-8---|
A|----------------------------------------|------------------------------------|
D|----------------------------------------|------------------------------------|

Pre-Chorus 

G|--------------------------------|--------------------------------|
D|--------------------------------|--------------------------------|
A|--5-3-0-3-0---------5-----------|--5-3-0-3-0---------------------|
D|0-----------5-3-0-0---0---------|------------5-0-----------------|

G|--------------------------------|--------------------------------|
D|--------------------------------|--------------------------------|
A|--5-3-0-3-0---------5-----------|--5-3-0-3-0---------------------|
D|0-----------5-3-0-0---0---------|------------5-0-3------4--------|

Chorus 

G|--------------------------------|--------------------------------|
D|--------------------------------|--------------------------------|
A|--------------------------------|--------------------------------|
D|3-5-5-5-5-5-3-5-----------------|2-3-3-3-3-3-2-3-----------------|
                                                                     x2
G|--------------------------------|--------------------------------|
D|--------------------------------|--------------------------------|
A|1-3-3-3-3-3-1-3-----------------|--------------------------------|
D|--------------------------------|3-5-5-5-5-5-3-0-3------2--------|

Bridge 

G|--------------------------------|--------------------------------|
D|--------------------------------|--------------------------------|
A|--5-3-0-3-0---------5-----------|--5-3-0-3-0---------5-----------|
D|------------5-3-0-0---0---------|------------5-3-0-0---0---------|

G|--------------------------------|--------------------------------|
D|--------------------------------|--------------------------------|
A|--5-3-0-3-0---------5-----------|--5-3-0-3-0-----3------4--------|
D|------------5-3-0-0---0---------|------------5-0-----------------|

Guitar solo 

G|--------------------------------|--------------------------------|
D|--------------------------------|--------------------------------|
A|--5-3-0-3-0---------5-----------|--5-3-0-3-0---------5-----------| x2
D|------------5-3-0-0---0---------|------------5-3-0-0---0---------|

G|--------------------------------|--------------------------------|
D|--2-0---0---0-2-----2-----------|--2-0---0---0-2-----2-----------|
A|------2---2---------------------|------2---2---------------------| x2
D|----------------2-2---2---------|----------------2-2---2---------|

G|--------------------------------|--------------------------------|
D|--5-3-0-3-0-3-5-----5-----------|--5-3-0-3-0-3-5-----5-----------|
A|--------------------------------|--------------------------------| 
D|----------------5-5---5---------|----------------5-5---5---------|

G|--------------------------------|--------------------------------|
D|--7-5---5---5-7-----7-----------|--7-5---5---5-7-----7-----------|
A|------7---7-----0-0---0---------|------7---7-----0-0---0---------| 
D|--------------------------------|--------------------------------|

Guitar solo

G|------------------------------------------10----|10-12-12-10-12-12-10-12-12-10-12-12-10-12-10----|
D|10-12-12-10-12-12-10-12-12-10-12-12-10-12----12-|---------------------------------------------12-|
A|------------------------------------------------|------------------------------------------------|
D|------------------------------------------------|------------------------------------------------|

G|------------------------------------------10----|10-12-12-10-12-12-10-12-12-10-12-12-------------|
D|10-12-12-10-12-12-10-12-12-10-12-12-10-12----12-|------------------------------------------------|
A|------------------------------------------------|------------------------------------8\----------|
D|------------------------------------------------|------------------------------------------------|

G|--------------------------------|--------------------------------|
D|--------------------------------|--------------------------------|
A|--------------------------------|--------------------------------|
D|3-5-5-5-5-5-3-5-----------------|2-3-3-3-3-3-2-3-----------------|
                                                                     x2
G|--------------------------------|--------------------------------|
D|--------------------------------|--------------------------------|
A|1-3-3-3-3-3-1-3-----------------|--------------------------------|
D|--------------------------------|3-5-5-5-5-5-3-0-3------2--------|

Final Chorus 

G|--------------------------------|--------------------------------|
D|--------------------------------|--------------------------------|
A|--------------------------------|--------------------------------|
D|3-5-5-5-5-5-3-5---5-5-5-5\------|2-3-3-3-3-3-2-3---3-3-3-3-------|
                                                                     x4
G|--------------------------------|--------------------------------|
D|--------------------------------|--------------------------------|
A|1-3-3-3-3-3-1-3---3-3-3-3-------|--------------------------------|
D|--------------------------------|3-5-5-5-5-5-3-0-3------2--------|

G|--------------------------------|--------------------------------|
D|--------------------------------|--------------------------------|
A|--------------------------------|--------------------------------|
D|0-------------------------------|--------------------------------|

Outro 4:27

G|-----------------------------------|-----------------------------------|
D|12-0-3-0-4-5-0-6-0-7-8-0-9-0-10-11-|12-0-3-0-4-5-0-6-0-7-8-0-9-0-10-11-|
A|-----------------------------------|-----------------------------------| x2
D|-----------------------------------|-----------------------------------|

G|-----------------------------------|-----------------------------------|
D|-----------------------------------|-----------------------------------|
A|-----------------------------------|-----------------------------------| x3
D|12-0-3-0-4-5-0-6-0-7-8-0-9-0-10-11-|12-0-3-0-4-5-0-6-0-7-8-0-9-0-10-11-|

G|-----------------------------------|-----------------------------------|
D|-----------------------------------|-----------------------------------|
A|-----------------------------------|-----------------------------------| 
D|12-0-3-0-4-5-0-6-0-7-8-0-9-0-10-11-|12-0-3-0-4-5-0-6-0-7-8-0-9-0-10-12-|

G|-----------------------------------|-----------------------------------|
D|-----------------------------------|-----------------------------------|
A|-----------------------------------|-----------------------------------|
D|0----------------------------------|0----------------------------------|

G|-----------------------------------|
D|-----------------------------------|
A|-----------------------------------|
D|0----------------------------------|



                                                                    
-------------------------------------------------------------------------------                               
                                  The Handler
-------------------------------------------------------------------------------


Tuning: Drop D

Intro: 0:07

G|----------------------------------|x2
D|----------------------------------|
A|-5--------------------------------|
D|---0-0-0-3-3-/7-7-7-7---8\0---7\0-|

Verse

G|----------------------------------|x4
D|----------------------------------|
A|-5--------------------------------|
D|---0-0-0-3-3-/7-7-7-7---8\0---7\0-|

Chorus (Difficult timely)

G|-------12-15-14-12-----------------------9-11-12-13-14-14--14-14-12-------|
D|----12-------------15-14-12--12-------6-9---------------------------15-14-|
A|-10------------------------12--12-8-7-------------------------------------|
D|--------------------------------------------------------------------------|

G|-------12-15-14-12-----------------------9-11-12-13-14-14--141414-|
D|----12-------------15-14-12--12-------6-9-------------------------|
A|-10------------------------12--12-8-7-----------------------------|
D|------------------------------------------------------------------|

Riff

G|----------------------------------|x2
D|----------------------------------|
A|-5--------------------------------|
D|---0-0-0-3-3-/7-7-7-7---8\0---7\0-|

Verse

G|----------------------------------| 
D|----------------------------------|
A|-5--------------------------------|
D|---0-0-0-3-3-/7-7-7-7---8\0---7\0-|

G|---------------------------------15~----------14~-| 
D|---------------------------12-15--------11-14-----|
A|-5----------------------13-----------12-----------|
D|---0-0-0-3-3-/7-7-7-7-----------------------------|

G|----------------------------------| 
D|----------------------------------|
A|-5--------------------------------|
D|---0-0-0-3-3-/7-7-7-7---8\0---7\0-|

G|---------------------------------15~----------14~-| 
D|---------------------------12-15--------11-14-----|
A|-5----------------------13-----------12-----------|
D|---0-0-0-3-3-/7-7-7-7-----------------------------|

Chorus

G|-------12-15-14-12-----------------------9-11-12-13-14-14--14-14-12-------|
D|----12-------------15-14-12--12-------6-9---------------------------15-14-|
A|-10------------------------12--12-8-7-------------------------------------|
D|--------------------------------------------------------------------------|

G|-------12-15-14-12-----------------------9-11-12-13-14-14--141414-|
D|----12-------------15-14-12--12-------6-9-------------------------|
A|-10------------------------12--12-8-7-----------------------------|
D|------------------------------------------------------------------|


Pre-Solo

G|----------------------------------|x2
D|----------------------------------|
A|-5--------------------------------|
D|---0-0-0-3-3-/7-7-7-7---8\0---7\0-|

Solo 2:28 ( with pick )

G|---------|
D|---------|
A|-5-(x64)-|
D|---------|

G|--------------------------------------------------|x2
D|--------------------------------------------------|
A|-5-(x32)-1-(x32)-0-(x32)-10-(x32)-8-(x32)-4-(x32)-|
D|--------------------------------------------------|

Bridge ( with pick )

G|--------------------------------------------------|
D|--------------------------------------------------|
A|-5-(x32)-1-(x32)-0-(x32)-10-(x32)-8-(x32)-4-(x32)-|
D|--------------------------------------------------|

G|---------------------------------|
D|---------------------------------|
A|-5-(x32)-1-(x32)-8-(x32)-4-(x32)-|
D|---------------------------------|

G|------------------|
D|------------------|
A|-5-(x32)-12-(x32)-|
D|------------------|

Outro

G|----------------------------------|x2
D|----------------------------------|
A|-5--------------------------------|
D|---0-0-0-3-3-/7-7-7-7---8\0---7\0-|

G|-----------------------------------------|
D|-----------------------------------------|
A|-----------------------------------------|
D|-----0-0-0-----0-0-0-----0-0-0-0-0--0~~~-|



                                                                     
-------------------------------------------------------------------------------                               
                                [JFK]+ Defector
-------------------------------------------------------------------------------


Tuning: Drop D

Intro 0:09

G|-------------------------------------------------------------------|
D|-------------------------------------------------------------------|
A|-------------------------------------------------------------------|
D|-0-0-0-0-0-0-6-6-7-7-7-7-x-x-x---4-4-4-4-4-4-4-4-5-5--5-4-5-7-8~-7-|

Chorus

G|-------------------------------------------------------------------|x2
D|-------------------------------------------------------------------|
A|-------------------------------------------------------------------|
D|-0-0-0-0-0-0-6-6-7-7-7-7-x-x-x---4-4-4-4-4-4-4-4-5-5--5-4-5-7-8~-7-|

Riff

G|----------------------------------|
D|----------------------------------|
A|----------------------------------|
D|--0-0-0-0-0-0-0-0-0-0-0-0-0-0-0-0-|

Verse

G|-------------------------------------------------------------------|x2
D|-------------------------------------------------------------------|
A|-------------------------------------------------------------------|
D|-0-0-0-0-0-0-6-6-7-7-7-7-9\\\\3--4-4-4-4-4-4-4-4-5-5--5-4-5-7-8~-7-|

Chorus

G|-------------------------------------------------------------------|x2
D|-------------------------------------------------------------------|
A|-------------------------------------------------------------------|
D|-0-0-0-0-0-0-6-6-7-7-7-7-x-x-x---4-4-4-4-4-4-4-4-5-5--5-4-5-7-8~-7-|

Riff

G|----------------------------------|
D|----------------------------------|
A|----------------------------------|
D|--0-0-0-0-0-0-0-0-0-0-0-0-0-0-0-0-|

Verse

G|-------------------------------------------------------------------|x2
D|-------------------------------------------------------------------|
A|-------------------------------------------------------------------|
D|-0-0-0-0-0-0-6-6-7-7-7-7-9\\\\3--4-4-4-4-4-4-4-4-5-5--5-4-5-7-8~-7-|

Chorus

G|-------------------------------------------------------------------|x2
D|-------------------------------------------------------------------|
A|-------------------------------------------------------------------|
D|-0-0-0-0-0-0-6-6-7-7-7-7-x-x-x---4-4-4-4-4-4-4-4-5-5--5-4-5-7-8~-7-|

Solo

G|---------------------------------------------------------------------|
D|-------------------------------12--12-12-12-12-12-11--9--9-9-9-9-9-7-|
A|-5--5-5-5-5-4-5--9--9-9-9-9-7-9--------------------------------------|
D|---------------------------------------------------------------------|

G|----------------------------------------------------------------------------|
D|----------------------------------------------------------------------------|
A|-9--9-9-9-9-7-9--12--12-12-12-12-12-10--7--7-7-7-7-5-7--10-10-10-10-9-9-9-9-|
D|----------------------------------------------------------------------------|

G|---------------------------------------------------------------------|
D|-------------------------------12--12-12-12-12-12-11--9--9-9-9-9-9-7-|
A|-5--5-5-5-5-4-5--9--9-9-9-9-7-9--------------------------------------|
D|---------------------------------------------------------------------|

G|-------------------------------------------------------------------------------|
D|-------------------------------------------------------------------------------|
A|-9--9-9-9-9-7-9--12--12-12-12-12-12-10--7--7-7-7-7-5-7--10-10-10-10-10-10-10-9-|
D|-------------------------------------------------------------------------------|

G|-------------------------------------------------------------------|x2
D|-------------------------------------------------------------------|
A|-------------------------------------------------------------------|
D|-0-0-0-0-0-0-6-6-7-7-7-7-9\\\\3--4-4-4-4-4-4-4-4-5-5--5-4-5-7-8~-7-|

Chorus

G|-------------------------------------------------------------------|x2
D|-------------------------------------------------------------------|
A|-------------------------------------------------------------------|
D|-0-0-0-0-0-0-6-6-7-7-7-7-x-x-x---4-4-4-4-4-4-4-4-5-5--5-4-5-7-8~-7-|

Solo

G|---------------------------------------------------------------------|
D|-------------------------------12--12-12-12-12-12-11--9--9-9-9-9-9-7-|
A|-5--5-5-5-5-4-5--9--9-9-9-9-7-9--------------------------------------|
D|---------------------------------------------------------------------|

G|----------------------------------------------------------------------------|
D|----------------------------------------------------------------------------|
A|-9--9-9-9-9-7-9--12--12-12-12-12-12-10--7--7-7-7-7-5-7--10-10-10-10-9-9-9-9-|
D|----------------------------------------------------------------------------|

G|---------------------------------------------------------------------|
D|-------------------------------12--12-12-12-12-12-11--9--9-9-9-9-9-7-|
A|-5--5-5-5-5-4-5--9--9-9-9-9-7-9--------------------------------------|
D|---------------------------------------------------------------------|

G|-------------------------------------------------------------------------------|
D|-------------------------------------------------------------------------------|
A|-9--9-9-9-9-7-9--12--12-12-12-12-12-10--7--7-7-7-7-5-7--10-10-10-10-10-10-10-9-|
D|-------------------------------------------------------------------------------|

Outro

G|------|
D|------|
A|------|
D|-0~~~-|


                                                                      
-------------------------------------------------------------------------------                               
                                  Revolt
-------------------------------------------------------------------------------


Tuning: Standard

Intro 0:14 ( With Distorsion )

G|------12~-|
D|-10h12----|
A|----------|
E|----------|

Verse 0:17 ( With Distorsion )
 
G|----------------------------------------------------------|x4
D|--------------------------------5-------------------------|
A|-3--5------------------------------5--7~-------------3~~~-|
E|-------3~-------------------------------------------------|

Pre-Chorus ( With Distorsion )

G|--------------------------------------------------5-7-9-9-9-9-9-9-9-9-|
D|------------------------------------------------5---------------------|
A|-3--5--7~-------------5~-------------3~---3-5-7-----------------------|
E|----------------------------------------3-----------------------------|

Chorus ( With Distorsion )

G|-----------------------------------------------------------------|
D|-5-5-5-5-5-5-5-5-5-5-5-5-4-4-4-4-2-2-2-2-2-2-2-2-----------------|
A|-------------------------------------------------3-3-3-3-3-3-3-3-|
E|-----------------------------------------------------------------|

G|-------------------------------------------------5-5-5-5-5-5-5-5-|
D|-5-5-5-5-5-5-5-5-5-5-5-5-4-4-4-4-2-2-2-2-2-2-2-2-----------------|
A|-----------------------------------------------------------------|
E|-----------------------------------------------------------------|

G|-----------------------------------------------------------------|
D|-5-5-5-5-5-5-5-5-------------------------------------------------|
A|-----------------5-5-5-5-5-5-5-5-7-7-7-7-7-7-7-7-3-3-3-3-3-3-3-3-|
E|-----------------------------------------------------------------|

G|---------------------------------------------------------|
D|-5-5-5-5-5-5-5-5-7-7-7-7-7-7-7-7-------------------------|
A|---------------------------------7-7-7-7-7-7-7-7-3-3-3-3-|
E|---------------------------------------------------------|

Verse ( With Distorsion )
 
G|----------------------------------------------------------|x3
D|--------------------------------5-------------------------|
A|-3--5------------------------------5--7~-------------3~~~-|
E|-------3~-------------------------------------------------|

Pre-Chorus ( With Distorsion )

G|--------------------------------------------------5-7-9-9-9-9-9-9-9-9-|
D|------------------------------------------------5---------------------|
A|-3--5--7~-------------5~-------------3~---3-5-7-----------------------|
E|----------------------------------------3-----------------------------|

Chorus ( With Distorsion )

G|-----------------------------------------------------------------|
D|-5-5-5-5-5-5-5-5-5-5-5-5-4-4-4-4-2-2-2-2-2-2-2-2-----------------|
A|-------------------------------------------------3-3-3-3-3-3-3-3-|
E|-----------------------------------------------------------------|

G|-------------------------------------------------5-5-5-5-5-5-5-5-|
D|-5-5-5-5-5-5-5-5-5-5-5-5-4-4-4-4-2-2-2-2-2-2-2-2-----------------|
A|-----------------------------------------------------------------|
E|-----------------------------------------------------------------|

G|-----------------------------------------------------------------|
D|-5-5-5-5-5-5-5-5-------------------------------------------------|
A|-----------------5-5-5-5-5-5-5-5-7-7-7-7-7-7-7-7-3-3-3-3-3-3-3-3-|
E|-----------------------------------------------------------------|

G|---------------------------------------------------------|
D|-5-5-5-5-5-5-5-5-7-7-7-7-7-7-7-7-------------------------|
A|---------------------------------7-7-7-7-7-7-7-7-3-3-3-3-|
E|---------------------------------------------------------|

Solo ( With Distorsion )

G|----------------------------------------------------------|x2
D|--------------------------------5-------------------------|
A|-3--5------------------------------5--7~-------------3~~~-|
E|-------3~-------------------------------------------------|

Bridge ( With Distorsion )

G|-----------------------------|x2
D|-----------------------------|
A|-3--5--7~---------------3~~~-|
E|-----------------------------|

G|-----------------------------------------------------5-7-9-9-9-9-9-9-9-9-|
D|---------------------------------------------------5---------------------|
A|-3--2--------------------------------2--3~---3-5-7-----------------------|
E|-------5~-------------------------5--------3-----------------------------|

Chorus ( With Distorsion )

G|-----------------------------------------------------------------|
D|-5-5-5-5-5-5-5-5-5-5-5-5-4-4-4-4-2-2-2-2-2-2-2-2-----------------|
A|-------------------------------------------------3-3-3-3-3-3-3-3-|
E|-----------------------------------------------------------------|

G|-------------------------------------------------5-5-5-5-5-5-5-5-|
D|-5-5-5-5-5-5-5-5-5-5-5-5-4-4-4-4-2-2-2-2-2-2-2-2-----------------|
A|-----------------------------------------------------------------|
E|-----------------------------------------------------------------|

G|-----------------------------------------------------------------|
D|-5-5-5-5-5-5-5-5-------------------------------------------------|
A|-----------------5-5-5-5-5-5-5-5-7-7-7-7-7-7-7-7-3-3-3-3-3-3-3-3-|
E|-----------------------------------------------------------------|

G|---------------------------------------------------------|
D|-5-5-5-5-5-5-5-5-7-7-7-7-7-7-7-7-------------------------|
A|---------------------------------7-7-7-7-7-7-7-7-3-3-3-3-|
E|---------------------------------------------------------|

Outro ( With Distorsion )

G|------------|
D|------------|
A|-3--5-------|
E|-------3~~~-|

                                  
                                   
-------------------------------------------------------------------------------                               
                                  Aftermath
-------------------------------------------------------------------------------


Tuning: Standard

The bass start at 2:18 after the 1st Chorus

G|-------11-11-9h11h9-----------9-13-13h14h13-----------7-7-6h7h6-------7~-7/9-999~-|
D|--------------------11------9---------------14------7-----------9-7---------------|
A|-9~--9------------------7~----------------------2~------------------5~------------|
E|----------------------------------------------------------------------------------|

Verse

G|---------------------------------------------|x2
D|---------------------------------------------|
A|-9~---9-9~--7~---7-7~--2~---2-2~--5~--5-7-7~-|
E|-----9----------7----------2-----------------|

Chorus

G|--------------------------------7---7--7~---------------------9------------7-----------7--------------12-----------|
D|----7---7--7~------7--------------------------7--------------------------------------------------------------------|
A|----------------------4--4~--5~---5---------------------5~-7~---7-7-7-4~-5~--5-5--5~--5~--5-8--8~--10~---10-10-10~-|
E|-5~---5-------5~----5---------------------5~---5-5--5~-------------------------------------------------------------|

Solo

G|-------11-11-9h11h9-----------9-13-13h14h13-----------7-7-6h7h6-------7~-7/9~-|
D|--------------------11------9---------------14------7-----------9-7-----------|
A|-9~--9------------------7~----------------------2~------------------5~--------|
E|------------------------------------------------------------------------------|

G|-------11-11-9h11h9----------9-9-13h14h13-----------7-7-6h7h6-------7~-7/9~-|
D|--------------------11------9-9-----------14------7-----------9-7-----------|
A|-9~--9------------------7~--------------------2~------------------5~--------|
E|----------------------------------------------------------------------------|

Pre-Chorus

G|--------------------------------------|
D|--------------------------------------|
A|-9(x16)-7(x16)-2(x16)--5(x8)-5~----7~-|
E|--------------------------------------|

Chorus 

G|--------------------------------------------6h7h6h7h6--------------------------------------------------|
D|----7---7-7~-----------------------------7-----------7/0-----------------------------------------------|
A|---------------4~---4-------5~-55-5~---------------------45-7~-77-7~---45~-55-5~--57-8~-88-8~----------|
E|-5~---5--------------5---0------------5~---5--------------------------5-----------------------5~-55-5~-|

G|--------------------------------------------------------------------|
D|--------------------------------------------------------------------|
A|--------4(x8)-5(x24)--------5(x8)-7(x20)-4(x4)-5(x16)-8(x8)-10(x24)-|
E|-5(x24)--------------5(x24)-----------------------------------------|

G|-------------------------6------7---7--7~---------------------9------------7-----------7--------------12----12-12~-|
D|----7---7--7~------7--------------------------7--------------------------------------------------------------------|
A|----------------------4------5~---5---------------------5~-7~---7-7-7-4~-5~--5-5--5~--5~--5-8--8~--10~---10--------|
E|-5~---5-------5~---5---------------------5~---5-5--5~--------------------------------------------------------------|

Outro

G|---------------------------|
D|---------------------------|
A|-7~----45~----8~----7-5/0~-|
E|------5--------------------|
                               
                                   
-------------------------------------------------------------------------------                               
                                  The Globalist
-------------------------------------------------------------------------------
Tuning: Standard

Intro 1:35

G|-----------------------------------------------------------------------|
D|-----------------------------------------------------------------------|
A|-----------------------------------------------------------------------|
E|-3-----------------3-----------------1-----------------1---------------|

G|-----------------------------------------------------------------------|
D|-----------------------------------------------------------------------|
A|-----------------------------------------------------------------------|
E|-0-----------------0-----------------5-----------------5---------------|

G|-----------------------------------------------------------------------|
D|-----------------------------------------------------------------------|
A|-----------------------------------------------------------------------|
E|-10----------------10-----------------3----------------3---------------|

G|-----------------------------------------------------------------------|
D|-----------------------------------------------------------------------|
A|-----------------------------------------------------------------------|
E|-8-----------------8-----------------1-----------------1---------------|

G|-----------------------------------------------------------------------|
D|-----------------------------------------------------------------------|
A|-----------------------------------------------------------------------|
E|-6-----------------6-----------------5-----------------10--------------|
 
G|-----------------------------------------------------------------------|
D|-----------------------------------------------------------------------|
A|--------------------------------------0--------------------------------|
E|-12----------------0---------------------------------------------------|

Verse 2:52

G|--------------------------------------------------------------------------------------|x2
D|--------------------------------------------------------------------------------------|
A|-------------------------------------------------------------------0-3-0--------------| 
E|-3-------------3----0-------------0----5-----------------------0-3--------------------|

G|-------------------------------------------------------------------------------|
D|-------------------------------------------------------------------------------|
A|---------------------------------------0-------0-2-----0-2-3-----2-3-4-----3-4-|
E|-3-------------3----0-------------0----------3---------------------------------|

G|------------------------------------------------------------------------|
D|------------------------------------------------------------------------|
A|-5-------5--5-------------------------3-------3-3-----------------------|
E|--------------------3-------3-3-------------------------1-------1-1-----|

G|------------------------------------|
D|-------------------2-------2--2-----|
A|-1-------1-1------------------------|
E|------------------------------------|

G|------------------------------------------|
D|------------------------------------------|
A|--0-------0-2-----0-2-3-----2-3-4-----3-4-|
E|--------3---------------------------------|
   
G|------------------------------------------------------------------------|
D|------------------------------------------------------------------------|
A|-5-------5--5-------------------------3-------3-3-----------------------|
E|--------------------3-------3-3-------------------------1-------1-1-----|

G|------------------------------------|
D|-------------------2-------2--2-----|
A|-1-------1-1------------------------|
E|------------------------------------|

G|------------------------------------------|x2
D|------------------------------------------|
A|--0-------0-2-----0-2-3-----2-3-5-----3-2-|
E|--------3---------------------------------|

G|-----------------------------------|
D|-----------------------------------|
A|-----------------------------------|
E|-5---------------------------------|

no bass for 4 bars

Riff 4:42

G|-----------------------------------|x4
D|-----------------------------------|
A|-12-0-0-12-0-0-12-0-0-12-0-0-6---6-| 
E|-----------------------------------|

G|-----------------------------------|x2
D|-----------------------------------|
A|-10-0-0-10-0-0-10-0-0-10-0-0-9---9-| 
E|-----------------------------------|

G|------------------------------------------------------------------|
D|------------------------------------------------------------------|
A|-7-0-0-7-0-0-7-0-0-7-0-0-5---5-----7-0-0-7-0-0-7-0-0-7-0-0-12--12-|
E|------------------------------------------------------------------|

G|------------------------------------|x2
D|------------------------------------|
A|-13-0-0-13-0-0-13-0-0-13-0-0-10--10-| 
E|------------------------------------|
  
G|------------------------------------|x2
D|------------------------------------|
A|-12-0-0-12-0-0-12-0-0-12-0-0-10--10-| 
E|------------------------------------| 

G|-----------------------------------------------------------------|
D|-----------------------------------------------------------------|
A|-5-0-0-5-0-0-5-0-0-5-0-0-3---3-----5-0-0-5-0-0-5-0-0-5-0-0-8---8-|
E|-----------------------------------------------------------------|
 
G|-------------------------------|x2
D|-------------------------------|
A|-7-0-0-7-0-0-7-0-0-7-0-0-5---5-| 
E|-------------------------------|

G|-------------------------------|x2
D|-------------------------------|
A|-5-0-0-5-0-0-5-0-0-5-0-0-3---3-| 
E|-------------------------------|

G|-----------------------------------------------------------------|
D|-----------------------------------------------------------------|
A|-3-0-0-3-0-0-3-0-0-3-0-0-7---7-----3-0-0-3-0-0-3-0-0-3-0-0-9---9-|
E|-----------------------------------------------------------------|

G|-----------------------------------|x2
D|-----------------------------------|
A|-10-0-0-10-0-0-10-0-0-10-0-0-9---9-| 
E|-----------------------------------|

G|------------------------------------------------------------------|
D|------------------------------------------------------------------|
A|-7-0-0-7-0-0-7-0-0-7-0-0-5---5-----7-0-0-7-0-0-7-0-0-7-0-0-12--12-|
E|------------------------------------------------------------------|

G|------------------------------------|x2
D|------------------------------------|
A|-13-0-0-13-0-0-13-0-0-13-0-0-10--10-|
E|------------------------------------|

G|------------------------------------|x2
D|------------------------------------|
A|-12-0-0-12-0-0-12-0-0-12-0-0-10--10-| 
E|------------------------------------|

G|-----------------------------------------------------------------|
D|-----------------------------------------------------------------|
A|-5-0-0-5-0-0-5-0-0-5-0-0-3---3-----5-0-0-5-0-0-5-0-0-5-0-0-8---8-|
E|-----------------------------------------------------------------|

G|-------------------------------|x2
D|-------------------------------|
A|-7-0-0-7-0-0-7-0-0-7-0-0-5---5-|
E|-------------------------------|

G|-------------------------------|x2
D|-------------------------------|
A|-5-0-0-5-0-0-5-0-0-5-0-0-3---3-| 
E|-------------------------------|

G|------------------------------------------------------------------|
D|------------------------------------------------------------------|
A|-3-0-0-3-0-0-3-0-0-3-0-0-7---7-----3-0-0-3-0-0-3-0-0-3-0-0-10--10-|
E|------------------------------------------------------------------|

G|-----------------------------------|x4
D|-----------------------------------|
A|-12-0-0-12-0-0-12-0-0-12-0-0-6---6-| 
E|-----------------------------------| 

G|------------------------------------|x4
D|------------------------------------|
A|-13-0-0-13-0-0-13-0-0-13-0-0-10--10-| 
E|------------------------------------|

Solo 6:14

G|-------------------------------------------------------------------|
D|-------------------------------------------------------------------|
A|-0-0-0-0-0-0-0-0-0-0-0-0-0-0-0-0-2-2-2-2-2-2-2-2-2-2-2-2-2-2-2-2-2-|
E|-------------------------------------------------------------------|

G|-------------------------------------------------------------------|
D|-------------------------------------------------------------------|
A|-3-3-3-3-3-3-3-3-3-3-3-3-3-3-3-3-3-5-5-5-5-5-5-5-5-5-5-5-5-5-5-5-5-|
E|-------------------------------------------------------------------|
 
G|-------------------------------------------------------------------|
D|-------------------------------------------------------------------|
A|-0-0-0-0-0-0-0-0-0-0-0-0-0-0-0-0-2-2-2-2-2-2-2-2-2-2-2-2-2-2-2-2-2-|
E|-------------------------------------------------------------------|

G|-------------------------------------------------------------------|
D|-------------------------------------------------------------------|
A|-3-3-3-3-3-3-3-3-3-3-3-3-3-3-3-3-3-4-4-4-4-4-4-4-4-4-4-4-4-4-4-4-4-|
E|-------------------------------------------------------------------|

G|-------------------------------------------------------------------|
D|-------------------------------------------------------------------|
A|-5-----------------------------------------------------------------|
E|-------------------------------------------------------------------|

Verse 7:46
 
G|-------------------------------------------------------------------|
D|-------------------------------------------------------------------|
A|-5---------------7-----------5-7---9---------9-7-9-12------------/-|
E|-------------------------------------------------------------------|

G|-------------------------------------------------------------------|
D|-----------------------------------9---------------------------7h9-|
A|-0-----------0/5-----------5/--------------------------------------|
E|-------------------------------------------------------------------|

G|------------------------------------------------------------------|
D|-7-------------------------------------------------------------0/-|
A|-----------------------------------0-----------0/5----------------|
E|------------------------------------------------------------------|

G|--------------------------------------------------------------------|
D|-12--------------------------11h12h11----------------7--------------|
A|--------------------------------------------------------------------|
E|--------------------------------------------------------------------|

G|-------------------------------------------------------------------|
D|-5-----4-5-7-5-4-5-4-2-4-2-----------------------------------------|
A|---------------------------5-4-5-----------------------------------|
E|-----------------------------------3---------------------------2h3-|

G|-------------------------------------------------------------------|
D|-------------------------------------------------------------------|
A|-9-----------8h9-8---------8-8-7---0-------------/-12--------------|
E|-------------------------------------------------------------------|

G|-------------------14-14-14----------14-------|
D|-------11-11-14-14----------------------14----|
A|-12-12------------------------------------12--|
E|----------------------------------------------|

Verse 8:26

G|--------------------------------------------------------------------|
D|--------------------------------------------------------------------|
A|-5---------------7-----------5-7---9---------9-7-9---12-----------/-|
E|--------------------------------------------------------------------|
 
G|-------------------------------------------------------------------|
D|-----------------------------------9---------------9---9-----9-7-9-|
A|-0---0-----3-4-0-5---------5-4-5-----------------------------------|
E|-------------------------------------------------------------------|

G|-------------------------------------------------------------------|
D|-7---------------------------7-------------------------------------|
A|-----------------5-------------7---0-------0-3-4-0-5-------5-5-4-5-|
E|-------------------------------------------------------------------|
 
G|---------------------------------------------------------------------|
D|-12--------------12--12------11h12h11--------------7-----------------|
A|---------------------------------------------------------------------|
E|---------------------------------------------------------------------|


G|-------------------------------------------------------------------|
D|-5-----4-5-7-5-4-5-4-2-4-2-----------------------------------------|
A|---------------------------5-4-5-----------------------------------|
E|-----------------------------------3---------------------------2h3-|

G|-------------------------------------------------------------------|
D|-------------------------------------------------------------------|
A|-9-----------8h9-8---------8-8-7---0-------------/-12--------------|
E|-------------------------------------------------------------------|

G|-------------------14-14---------------------|
D|-------11-11-14-14-------14-14-11-11---------|
A|-12-12-------------------------------12------|
E|---------------------------------------------|
  
Verse 9:09

G|--------------------------------------------------------------------|
D|--------------------------------------------------------------------|
A|-5---------------7---------7-5-7---9---------9-7-9---12-----------/-|
E|--------------------------------------------------------------------|
  
G|-------------------------------------------------------------------|
D|-----------------------------------9---------------9---9-----9-7-9-|
A|-0---0-----3-4-0-5---------5-4-5-----------------------------------|
E|-------------------------------------------------------------------|

G|--------------------------------------------------------------------|
D|-11------------9-11-9-7-9-7-6-7-------------------------------------|
A|--------------------------------7---0-------0-3-4-0-5-----5-5-5-4-5-|
E|--------------------------------------------------------------------|

G|-7-------7-------7---7-----7-8-7---9-6---------6--------------------|
D|---------------------------------------7-----7---7-5---------7-5-4--|
A|--------------------------------------------------------------------|
E|--------------------------------------------------------------------|

G|--------------------------------------------------------------------|
D|-5-7-5-4-5-4-2-4-2---2----------------------------------------------|
A|-------------------5---5-4-5-4-5------------------------------------|
E|-----------------------------------3---------------3---3-----3-2-3--|

G|------------------------------------------------------------------|
D|------------------------------------------------------------------|
A|---------/9---8h9-8----------8-8-7---0-------------/12------------|
E|-2----------------------------------------------------------------|

G|-------------2-2---------------------------------------------------|
D|---------2-2-----2-2-----------------------------------------------|
A|-0-0-4-4-------------4-4-0---------5-------------------------------|
E|-------------------------------------------------------------------|
                                  
                                   
-------------------------------------------------------------------------------                               
                                   Drones
-------------------------------------------------------------------------------


                                   NO BASS 




Hope this album's tab is good! Have fun! :)


| /  slide up
| \  slide down
| h  hammer-on
| p  pull-off
| ~  let ring
| +  harmonic
| x  Mute note
===============================================================================
Добавлено: 22.08.2015
Другие материалы по этой песне:
  • Аккорды и текст

Страница создана 22.08.2015
http://primanota.ru/muse/drones-album-chords.htm
Привет, Гость.
Предлагаем пройти революционный курс по гитаре.
Подарок от PrimaNota.Ru, забирай!