PrimaNota.ru - самый крупный в мире бесплатный архив песенных текстов, аккордов, табулатур и нот


Muse - Munich Varia Jam - бас-таба, видео

Регистрация Запомнить меня
Войти через:  Facebook Google Twitter Vk Yandex Mail.ru

Muse - Munich Varia Jam - бас-таба, видео

Печатать
Просмотров: 198
-------------------------------------------------------------------------------
                             Munich/Varia Jam - Muse
-------------------------------------------------------------------------------
Tuning: Standard

Chris plays this with an octave pedal on. If you don't have one, tune your A to a G.

G|-7-0-0-10-0-0-9-0-0-12-0-0-10-0-0-14-0-0------------------------10-10-10-|
D|-----------------------------------------11-11-11-11---11-11-11----------|
A|-------------------------------------------------------------------------| x3
E|-------------------------------------------------------------------------|

G|-7--10--9--12--10--14\\\-----|
D|-----------------------------|
A|-----------------------------|
E|-----------------------------|

G|-12-0-0-15-0-0-14-0-0-17-0-0-15-0-0-19-0-0------------------------15-15-15-|
D|-------------------------------------------16-16-16-16---16-16-16----------|
A|---------------------------------------------------------------------------| x8
E|---------------------------------------------------------------------------|

G|-7-0-0-10-0-0-9-0-0-12-0-0-10-0-0-14-0-0------------------------10-10-10-|
D|-----------------------------------------11-11-11-11---11-11-11----------|
A|-------------------------------------------------------------------------| x3
E|-------------------------------------------------------------------------|

G|-7--10--9--12--10--14\\\-----|
D|-----------------------------|
A|-----------------------------|
E|-----------------------------|

G|-12-0-0-15-0-0-14-0-0-17-0-0-15-0-0-19-0-0-------------------|
D|-------------------------------------------16-16-16-16-16-16-|
A|-------------------------------------------------------------| x4
E|-------------------------------------------------------------| 

G|-12-0-0-15-0-0-14-0-0-17-0-0-15-0-0-19-0-0-20-20-20-20-20-20-|
D|-------------------------------------------------------------|
A|-------------------------------------------------------------| x2
E|-------------------------------------------------------------| 

G|-7-0-0-7-0-0-7-0-0-7--9-0-0-9-0-0-9-0-0-9--|
D|-------------------------------------------|
A|-------------------------------------------|
E|-------------------------------------------|

G|-10-0-0-10-0-0-10-0-0-10--12-0-0-12-0-0-12-0-0-12--|
D|---------------------------------------------------|
A|---------------------------------------------------|
E|---------------------------------------------------|

G|-13-0-0-13-0-0-13-0-0-13---14-0-0-14-0-0-14-0-0-14--|
D|----------------------------------------------------|
A|----------------------------------------------------|
E|----------------------------------------------------|

G|-15-0-0-15-0-0-16-0-0-16-0-0-17-0-0-17-0-0-18-0-0-18-0-0--|
D|----------------------------------------------------------|
A|----------------------------------------------------------|
E|----------------------------------------------------------|

G|-12-0-0-15-0-0-14-0-0-17-0-0-15-0-0-19-0-0-------------------|
D|-------------------------------------------17-17-17-17-17-17-|
A|-------------------------------------------------------------|
E|-------------------------------------------------------------| 

G|-12-0-0-15-0-0-14-0-0-17-0-0-15-0-0-19-0-0-------------------|
D|-------------------------------------------16-16-16-16-16-16-|
A|-------------------------------------------------------------| x3
E|-------------------------------------------------------------| 

G|-12-0-0-15-0-0-14-0-0-17-0-0-15-0-0-19-0-0-------15-15-15----15-15-15-15-15-|
D|-------------------------------------------16-16----------16----------------|
A|----------------------------------------------------------------------------|
E|----------------------------------------------------------------------------|

G|-12-0-0-15-0-0-14-0-0-17-0-0-15-0-0-19-0-0------------------------15-15-15-|
D|-------------------------------------------16-16-16-16---16-16-16----------|
A|---------------------------------------------------------------------------| x2
E|---------------------------------------------------------------------------|

G|-12-0-0-15-0-0-14-0-0-17-0-0-15-0-19-0-|
D|---------------------------------------|
A|---------------------------------------| x3
E|---------------------------------------|

G|-20-0-0-19-0-0-17-0-0-15-0-0-11-0-11-0-12-----|
D|----------------------------------------------|
A|----------------------------------------------|
E|----------------------------------------------|

| \  slide down
| ~  vibrato/let ring
===============================================================================
Добавлено: 12.09.2015
Другие материалы по этой песне:

Страница создана 12.09.2015
http://primanota.ru/muse/munich-varia-jam-chords.htm
Привет, Гость.
Предлагаем пройти революционный курс по гитаре.
Подарок от PrimaNota.Ru, забирай!