PrimaNota.ru - самый крупный в мире бесплатный архив песенных текстов, аккордов, табулатур и нот


Murray Gold - Doomsday - текст песни, таба, бас-таба, видео

Регистрация Запомнить меня
Войти через:  Facebook Google Twitter Vk Yandex Mail.ru

Murray Gold - Doomsday - текст песни, таба, бас-таба, видео

Печатать
Просмотров: 1889
Авторы музыки: Murray Gold

-------------------------------------------------------------------------------
                             Doomsday – Murray Gold
-------------------------------------------------------------------------------
Tabbed by: Daniella Zeman
E-mail: whalesxdoxflyx@yahoo.com

Tuning: Standard

This is Doomsday from Dr. Who. There were no tabs for it and so this is my version.
Because it is relatively simple I added some excitement here and there to make it more
complicated but if you just want the easy melody follow the top high e and B strings and 
that'll get you where you want to go.
Cheers~

e|----------------------------------------------------|
B|--6--6--6--6--6--6--6--6--6--6--6--6--6--6--6--6----|
G|----------------------------------------------------|
D|----------------------------------------------------|
A|--------------------------4--4--4--4--1--1--1--1----|
E|--1--1--1--1--4--4--4--4----------------------------|

e|---------------------------8----6--4---3--4--3--0---1-----1--1-------1----3-----|
B|--6--6--6--6--6--6--6--6--6--6----6---6-----6------6--6--1----0--1--1--6--------|
G|--------------------------10-----------4------------4----------------0----------|
D|---------------------------------------6-----------------------------2----------|
A|--------------4--4--1--1--------------------------------------------------------|
E|--1--1--4--4--------------------------------------------------------------------|

e|-1--0--1--3--4----6--8-----6--4--3--4--3-----1----3---0--------0-----0--------|
B|-1-----6-----6--6----6--6--------6-----6--6--6--6-----5--5--5--1--2--1--0-----|
G|---------------------10-------------------------------------------------------|
D|------------------------------------------------------------------------------|
A|------------------------------------------------------------------------------|
E|------------------------------------------------------------------------------|

e|-0--8--------------9--6--8-------------0--12--13--8----------6--4--3--------------|
B|-1--6--6--6--6--6--6-----6--6--6--6--6------------6--6--6--6-------6--6--6--6-----|
G|---------------------------------------------------6--6--6--6---------------------|
D|-------------------------6--6--6--6--6------------------------------8--8--8--8----|
A|----8--8--8--8--8-----------------------------------------------------------------|
E|----------------------------------------------------------------------------------|

e|-1-----------1-------|
B|-6--6--6--6--1-------|
G|---------------------|
D|---------------------|
A|---------------------|
E|-------------1-------|

************************************

| /   slide up
| \   slide down
| h   hammer-on
| p   pull-off
| ~   vibrato
| +   harmonic
| x   Mute note
| b   Bend
| pb  Pre-bend
| br  Bend release
| pbr Pre-bend release
| brb Bend release bend

************************************
Добавлено: 17.07.2013
Другие материалы по этой песне:

Страница создана 03.06.2012
http://primanota.ru/murray-gold/doomsday-chords.htm
Привет, Гость.
Предлагаем пройти революционный курс по гитаре.
Подарок от PrimaNota.Ru, забирай!