PrimaNota.ru - самый крупный в мире бесплатный архив песенных текстов, аккордов, табулатур и нот


Murray Gold - Clara Theme Modified - таба, видео

Регистрация Запомнить меня
Войти через:  Facebook Google Twitter Vk Yandex Mail.ru

Murray Gold - Clara Theme Modified - таба, видео

Печатать
Просмотров: 263
-------------------------------------------------------------------------------
                             SONG NAME - Band Name
-------------------------------------------------------------------------------
Tabbed by: shia.winter1
E-mail:
combines claras theme made by lazyshredder, and necorst, improves on both. combines claras theme v3, and the
version played by capaldi in "Hell Bent"
the goal is to have something that sounds good to play while chilling,
rather than just to appease fellow whovians
post revisions in comments.
Tuning: eadgbe

e--2----------------------0----------------0------------------------------|
B--0---0-0-0----0-1-3-1-0-1--1-1-1-----1-3---3-1---3p0----------0-1-0---0-|
G--0----------------------2----------------------------0------2-------2---|
D--0----------------------2-----------------------------------------------|
A--2----------------------0-----------------------------------------------|
E--3----------------------------------------------------------------------|

e-----------0--0-0-0---0-2-3-2-0--2-----------------2-------------------0---0------------|
B-1--3------1----------------------3p0--0-1-0-0-1---3-333-3--5s-7-5-3-----3-1-1-0-1-3-1-0|
G-----------0--------------------------2-----2------4-----------------0-----2------------|
D-----------2---------------------------------------4-----------------------2------------|
A-----------3---------------------------------------2-----------------------0------------|
E---------------------------------------------------2------------------------------------|

E |---------------------------3--2----------------------------------------------|
B |---------1--0-------------------3------------1--0-----------------3----------|
G |---------------2-----0--2---------2----------------2--0--2---2----0h-2p-0----|
D |------------------------0-----------0--------------------0--------0-------0--|
A |--2--3--------------------------------2--3-----------------------------------|
E |-----------------------------------------------------------------------------|

E |-----------------------------------------------------0--|
B |--3-3-3-3-3-3-3-3-3-3-3-3-7-7-7-7-7-7-7-7-7-7-7-0----0--|
G |--4-4-4-4-4-4-4-4-4-4-4-4-7-7-7-7-7-7-7-7-7-7-7-0----0--| considering removing this, trying to integrate
D |--4-4-4-4-4-4-4-4-4-4-4-4-7-7-7-7-7-7-7-7-7-7-7-0----2--| better
A |--2-2-2-2-2-2-2-2-2-2-2-2/5-5-5-5-5-5-5-5-5-5-5------2--|
E |-----------------------------------------------------0--|


E |--3p-2p-0-------------0----0-----------0---|
B |------------3---0-----0h1--3-----------0---|
G |----------------------0----0-----------0---|
D |----------------------2----4-----------2---|
A |----------------------3----5-----------2---|
E |---------------------------------------0---|


************************************
| /   slide up
| \   slide down
| h   hammer-on
| p   pull-off
| ~   vibrato
| +   harmonic
| x   Mute note
| b   Bend
| pb  Pre-bend
| br  Bend release
| pbr Pre-bend release
| brb Bend release bend

************************************
Добавлено: 15.05.2016
Другие материалы по этой песне:
  • Аккорды и текст

Страница создана 15.05.2016
http://primanota.ru/murray-gold/clara-theme-modified-chords.htm
Привет, Гость.
Предлагаем пройти революционный курс по гитаре.
Подарок от PrimaNota.Ru, забирай!