PrimaNota.ru - самый крупный в мире бесплатный архив песенных текстов, аккордов, табулатур и нот


Моцарт Вольфганг Амадей - Canzonetta Don Giovanni - таба, видео

Регистрация Запомнить меня
Войти через:  Facebook Google Twitter Vk Yandex Mail.ru

Моцарт Вольфганг Амадей - Canzonetta Don Giovanni - таба, видео

Печатать
Просмотров: 171
Title:Canzonetta
Artist: W.A. Mozart 
Mandolin-G D A E
Author: Transcribed by Matthew Deely
Notes: This is how I play it. I think it sounds better with shifts than with position playing.


Track 1: 

E|----0--2--3--5--2------2---5---|-3--5--7--9--10-7------7---10--|-------------0--2--3--2--3--0-----0--|
A|-5-----------------5-----------|-------------------10----------|-0--2--4--5--------------------4-----|
D|-------------------------------|-------------------------------|-------------------------------------|
G|-------------------------------|-------------------------------|-------------------------------------|


E|----2-----------------------|----0--2--3--5--2------2---5---|-3--5--7--9--10-7------7---10--|
A|-5-----5--0-----0-----------|-5-----------------5-----------|-------------------10----------|
D|-------------4-----0--------|-------------------------------|-------------------------------|
G|----------------------------|-------------------------------|-------------------------------|


E|-------------0-------------0---|-------------------------------------|----0--2--3--5--2------2-------|
A|-0--2--4--5-----4--0---4-------|----------0--2--4--5--4--5--0--------|-5-----------------5-------0---|
D|-------------------------------|-2--4--5-----------------------4--0--|-------------------------------|
G|-------------------------------|-------------------------------------|-------------------------------|


E|------0-----------------0----------|------------2--------0--5--------4-|------0--5--0-----------0---------|
A|---2-----2-----2--0--4-----4--0--4-|---0--5--0-----5--4--------4--2----|0--4-----------4--0--4-----4--0--4|
D|6-----------6----------------------|4----------------------------------|----------------------------------|
G|-----------------------------------|-----------------------------------|----------------------------------|


E|-------2-----------------0-----------|----0-----------------------|-------5-----------------------------|
A|-0--5-----5--0--5-----2-----2-----2--|-0-----4--0--------0--------|----4-----4-----4-----2--6--2-----2--|
D|-------------------6-----------6-----|-------------2-----2--------|-4-----------4-----4-----------4-----|
G|-------------------------------------|----------------6--2--------|-------------------------------------|


E|-------0--------------0--5--0-----0--|-------3--5--3-----------2--5--2-----|-3--5--7--8--10-7------7---10-|
A|----2-----2-----2--3-----------3-----|----5-----------5-----5-----------5--|-------------------10---------|
D|-5-----------5-----------------------|-0-----------------0-----------------|------------------------------|
G|-------------------------------------|-------------------------------------|------------------------------|


E|----0--2--3--5-----3---7---10--|-------5-----5-----------6-----6-----|-------7-----7-----------2-----3----|
A|-5--------------5--------------|----5-----5-----5-----5-----5-----5--|----5-----5-----5--0--5-----5-----4-|
D|-------------------------------|-4-----------------4-----------------|-5----------------------------------|
G|-------------------------------|-------------------------------------|------------------------------------|


E|-------------2-----------0--2--3--0--|----0--2--3--5--2--0--2--3--5--7--9--|-10-5--2--------------------|
A|-5--0-----------5--4--5--------------|-5-----------------------------------|----------5--0--------------|
D|-------4--0--------------------------|-------------------------------------|----------------4--0--------|
G|-------------------------------------|-------------------------------------|----------------------------|


E|----0--2--3--5--2------2---5---|-3--5--7--9--10-7------7---10--|-------------0-------------0---|
A|-5-----------------5-----------|-------------------10----------|-0--2--4--5-----4--0---4-------|
D|-------------------------------|-------------------------------|-------------------------------|
G|-------------------------------|-------------------------------|-------------------------------|


E|-------------------------------------|----0--2--3--5--2------2-------|-------0-----------------0----------|
A|----------0--2--4--5--4--5--0--------|-5-----------------5-------0---|----2-----2-----2--0--4-----4--0--4-|
D|-2--4--5-----------------------4--0--|-------------------------------|-6-----------6----------------------|
G|-------------------------------------|-------------------------------|------------------------------------|


E|------------2--------0--5--------4-|------0--5--0-----------0----------|------2-----------------0---------|
A|---0--5--0-----5--4--------4--2----|0--4-----------4--0--4-----4--0--4-|0--5-----5--0--5-----2-----2-----2|
D|4----------------------------------|-----------------------------------|------------------6-----------6---|
G|-----------------------------------|-----------------------------------|----------------------------------|


E|----0-----------------------|-------5-----------------------------|-------0--------------0--5--0-----0--|
A|-0-----4--0--------0--------|----4-----4-----4-----2--6--2-----2--|----2-----2-----2--3-----------3-----|
D|-------------2-----2--------|-4-----------4-----4-----------4-----|-5-----------5-----------------------|
G|----------------6--2--------|-------------------------------------|-------------------------------------|


E|-------3--5--3-----------2--5--2-----|-3--5--7--8--10-7------7---10--|----0--2--3--5-----3---7---10--|
A|----5-----------5-----5-----------5--|-------------------10----------|-5--------------5--------------|
D|-0-----------------0-----------------|-------------------------------|-------------------------------|
G|-------------------------------------|-------------------------------|-------------------------------|


E|------5-----5-----------6-----6----|------7-----7-----------2-----3----|------------2-----------0--2--3--0|
A|---5-----5-----5-----5-----5-----5-|---5-----5-----5--0--5-----5-----4-|5--0-----------5--4--5------------|
D|4-----------------4----------------|5----------------------------------|------4--0------------------------|
G|-----------------------------------|-----------------------------------|----------------------------------|


E|----0--2--3--5--2--0--2--3--5--7--9--|-10------------|
A|-5-----------------------------------|---------------|
D|-------------------------------------|---------------|
G|-------------------------------------|---------------|






Добавлено: 08.08.2015
Другие материалы по этой песне:
  • Аккорды и текст

Страница создана 08.08.2015
http://primanota.ru/mozart-wolfgang-amadeus/canzonetta-don-giovanni-chords.htm
Привет, Гость.
Предлагаем пройти революционный курс по гитаре.
Подарок от PrimaNota.Ru, забирай!