PrimaNota.ru - самый крупный в мире бесплатный архив песенных текстов, аккордов, табулатур и нот


Моцарт Вольфганг Амадей - Piano Concerto No 23 - таба, видео

Регистрация Запомнить меня
Войти через:  Facebook Google Twitter Vk Yandex Mail.ru

Моцарт Вольфганг Амадей - Piano Concerto No 23 - таба, видео

Печатать
Просмотров: 100
Mozart's piano concerto no. 23 in A, k.488

Allegro


e---12---9-----10----14------10-------7-----|
B--------10---------------12-------9--------|
G---9----------11----14---11-------7--------|
D-------------------------------------------|
A-------------------------------------------|
E-------------------------------------------|

e-------------------------------|
B--10--9--7--5---5-----9\7-5----|
G------9--7--6---6-----9\7-6----|
D--11---------------------------|
A-------------------------------|
E-------------------------------|

e------------------------------------------------|
B-------------------------------7--7--5----------|
G---------------7--7--6----6\4--7--7--6----------|
D--7----7\6-----------7----7\6-------------------|
A------------------------------------------------|
E------------------------------------------------|

e-----------5--7---9--10---12\11\10\-9-7---|
B--5--7--9--7--9--10--12---14\13\12\10-9---|
G--6--7--9---------------------------------|
D------------------------------------------|
A------------------------------------------|
E------------------------------------------|

e---------------|
B---------------|
G---------------|
D---------------|
A--7\6\5--------|
E-----------7---|

e--12-----9-----10----14-----------10-------7---|
B--10-----------------10----12---------9--------|
G---------9-----11-----------------11-------7---|
D---------7-----------------12---------9--------|
A---0-----------12------------------------------|
E-----------------------------------------------|

e----------------------------|
B--10--9--7\5--5----9\7--5---|
G------9--7\6--6----9\7--6---|
D--11------------------------|
A----------------------------|
E----------------------------|

e----------------3-------------|
B---6--6--7\6----3---6---4\3---|
G---4--7--8\7----4---4---5\4---|
D---0------------0-------------|
A------------------------------|
E------------------------------|

e----9----10-----------9-----------------9-12-12-12----|
B-----------------12--------10------10-----------------|
G----------------------------------9-------------------|
D------------------------------------------------------|
A------------------------------------------------------|
E------------------------------------------------------|

e---9---10----------9-----|
B--------------12---------|
G-------------------------|
D-------------------------|
A-------------------------|
E-------------------------|

e--5---------------------------------------5\3--3----|
B-------------------5\3--3------3--3--3--------------|
G--2----2--2--2--------------------------------------|
D-------------------4-----------4--4--4----2---------|
A--0----0--0--0--------------------------------------|
E----------------------------------------------------|

e--3--3--3---10\9--9----12---------------------------|
B--------------------------------------10---8\7--7---|
G----------------------------------9-----------------|
D--0----------------------------------------0--------|
A-----4--2----0--------------------------------------|
E----------------------------------9-----------------|

e----------------------------10-9---------------------|
B--------------10\9--9------------12-10-9-------------|
G--7--7--7-----------------------------------11\9-9---|
D--0--0--0------9-------------------------------------|
A-----------------------------------------------------|
E-----------------------------------------------------|

e-----------------------------------------------------|
B--12-10-9--------------------------------------------|
G-------------11-9-7\6--6--------6/9--9-9\8--8--------|
D------------------------------7----------------------|
A-----------------------------------------------------|
E-----------------------------------------------------|

e--------------5----7--5--------4-5------4-5----------|
B-----7\5-9\7----7------------7---------7--------4-5--|
G--8--------------------------------------------------|
D-----------------------------------------------------|
A-----------------------------------------------------|
E-----------------------------------------------------|

e--7\5\4------------5\4/5-----------7\5\4-------------|
B----------7\5\3\2---------5\2--------------7\5\3\2---|
G-------------------------------2\1-------------------|
D-----------------------------------------------------|
A-----------------------------------------------------|
E-----------------------------------------------------|

e--5\4/5-------------------|
B---------5\2----5---------|
G--------------2-----------|
D---------------------2----|
A--------------------------|
E--------------------------|

e--------------------------5--------------------------|
B---------7-5-5---5-5-5-5----9-7-5--------------------|
G--6/7----------------------------------8-7-6-6--4-4--|
D-----------------------------------------------------|
A-----------------------------------------------------|
E-----------------------------------------------------|

e------------------------------------------------------|
B-----------5----------------------------------2-------|
G--4-4-4-4-----8-7-6-4-2-1-----------------------2-----|
D---------------------------------4--2-2---2-2---------|
A------------------------------------------------------|
E------------------------------------------------------|

e--------------------------------------------------2------|
B------------------------------------------2--5-----------|
G----------------------4-1------------2--------------2/1--|
D--4--2-0-0---0-0----------2-0----------------------------|
A----------------------------------4----------------------|
E---------------------------------------------------------|

e--------------------------5--------------------------|
B---------7-5-5---5-5-5-5----9-7-5--------------------|
G--6/7----------------------------------8-7-6-6--4-4--|
D-----------------------------------------------------|
A-----------------------------------------------------|
E-----------------------------------------------------|

e-------------------------------------------------------|
B------------5------------------------------------------|
G--4-4-4-4-----8-7-6-4-2-1------------------------------|
D---------------------------------4--2-2---2-2---3--4---|
A-------------------------------------------------------|
E-------------------------------------------------------|

e----------------------------------------------|
B-------------2-3-4-5--2--------2--0-----------|
G--1-2-3-4-----------------2-----------1--2----|
D----------------------------------------------|
A----------------------------------------------|
E----------------------------------------------|

e------------------10\9--------------------------13\12----|
B---------------------------------------------------------|
G----------7\6---------------------7--9/10\9--------------|
D--7--7---------------------7--7--------------------------|
A---------------------------------------------------------|
E---------------------------------------------------------|

e-----------5\4--7\5\4----0---10-7--------7-----5-----|
B--7--7-----------------7------------9----------------|
G---------------------------------------7-----6-------|
D--7--7-----------------------------------------------|
A--5--5-----------------------------------------------|
E-----------------------------------------------------|

e------------------------------------------------------|
B--------7---------------------------------------------|
G--4-------7\4--------------------6-6-6----------------|
D----------------7\6----7\6/7--9-----------7\6/7--9----|
A------------------------------------------------------|
E------------------------------------------------------|

e----------------------------------------------------|
B---------------------------------------2-3-4-5-6----|
G--6-6-6---------------6-6-6-----2-4-5---------------|
D------------7\6/7--9--------------------------------|
A----------------------------------------------------|
E----------------------------------------------------|

e-----------5\4--7\5\4----0---10-7--------7-----5----|
B--7--7------------------7-----------9---------------|
G---------------------------------------7-----6------|
D--7--7----------------------------------------------|
A--5--5----------------------------------------------|
E----------------------------------------------------|

e------------------------0--10-7--------7------5-----|
B--------7-------------------------9-----------------|
G--4-------7/4-----------------------7------6--------|
D----------------7/6---------------------------------|
A----------------------------------------------------|
E----------------------------------------------------|

e---0--10-7----------7-------5----------------------------|
B---------------9--------------------------7--------------|
G-------------------7------6-------4---------7/4----------|
D---------------------------------------------------7/6---|
A---------------------------------------------------------|
E---------------------------------------------------------|

e-----------------------------------------------------|
B-----------------------------------------------------|
G------8/9--11\9-----------------7\6---8/9--11\9------|
D--7----------------7---7-9---9-----------------------|
A--------------------------------9\7------------------|
E-----------------------------------------------------|

e---------------------------5---------|
B---------------------------5---------|
G-------------6---4/6-------6---------|
D--7--7--7------------7---------7-----|
A-------------------------------0-----|
E-------------------------------------|

piano solo

e-----------------------------------------------------|
B--5---------------------------------------7------3---|
G---------------6--------------7--------------4-------|
D-----2-----2------2------2------0--------------------|
A--0-----0------0------0-------0-----0----------------|
E-----------------------------------------------------|

e----------------------------------------------|
B----------------------------------------------|
G-----4----------------------------------------|
D--6------7--6--4/2---2---6/4/2-----7---6/7/9--|
A---------0--7--5/4---4---7/5/4----------------|
E----------------------------------------------|

e---------------------------------------------7/9/10--|
B--------------------------7-7-----7/9/10-------------|
G--6/7--7-6--------6/7/9-------9----------------------|
D---------------9-------------------------------------|
A-----------------------------------------------------|
E-----------------------------------------------------|

e--12/9--------9---------------------------------------|
B--------10-------10-----------------------------------|
G------------9---------9------9\8\7\6\4----------------|
D--------------------------11--------------------------|
A-----------------------------------------------2/4/5--|
E------------------------------------------------------|

e--------------------------------------------------|
B--5--------------------------------------7----7---|
G--------------6--------------7--------7----7------|
D-----2-----2------2------2------0-----------------|
A--0-----0-----0------0-------0-----0--------------|
E--------------------------------------------------|

e--------------------------------------------------7/9\7-|
B-----3----3----------------------------7/9/10-----------|
G--4----4-------4----4---------6/7/9---------------------|
D--------------6----6----7---9---------------------------|
A--------------------------------------------------------|
E--------------------------------------------------------|

e-------------------------------12--10\9------------|
B--10\9\7-----------9\7-5----------------12\10\9----|
G------------9--9---7---6---------------------------|
D---------------------------------------------------|
A---------------------------------------------------|
E---------------------------------------------------|

e-------------------------------------------------------|
B-------------------------------------------------------|
G--11\9------------------------------------------6/7/9--|
D---------12\11\9------------------------6/7/9----------|
A--------------------12\11\9\7---5--7/9-----------------|
E-------------------------------------------------------|

e-----------7/9/10--10\9\7-----------------------------|
B--7/9/10--------------------10\9\7--------------------|
G---------------------------------------9\7\6-7/8/9-9--|
D------------------------------------------------------|
A------------------------------------------------------|
E------------------------------------------------------|

e-----------5------------------------------5\3-3---|
B--------------------------5\3-3---3-3-3-----------|
G--7\6\4----2----2-2-2-----------------------------|
D--------------------------4-------4-4-4---2-------|
A-----------0----0-0-0-----------------------------|
E--------------------------------------------------|

e--3-3-3---10\9--9----12--------------------------------|
B-----------------------------------10--8\7--7----------|
G-------------------------------9-----------------7-7-7-|
D--0------------------------------------0---------------|
A----4-2----0----------0--------------------------------|
E-------------------------------9-----------------------|

e---------------------7/9/10/12\10\9\7--------------------|
B--9/10\9\7/9/10------------------------10\9\7----7-------|
G-----------------------------------------------------9---|
D---------------------------------------------------------|
A---------------------------------------------------------|
E---------------------------------------------------------|

e-------------------7/9\7----------------------------|
B----------7/9/10--------10\9\7----------------------|
G--9\8/9---------------------------9\7\6-9\7\6/7/9---|
D----------------------------------------------------|
A----------------------------------------------------|
E----------------------------------------------------|

e----------7----------------------------------------|
B--7/9/10----10\9\7---------------------------------|
G------------------------9\8\6----6---------6/8/9---|
D--------------------------------9----9\8/9---------|
A---------------------------------------------------|
E---------------------------------------------------|

e---------------------------------------------------|
B--7/9\7------------------------------------7/9/10--|
G---------9\8\6---------------------6/8/9-----------|
D-----------------9\7\6-9\7\6/7/9-------------------|
A---------------------------------------------------|
E---------------------------------------------------|

e--7/9/11/12-8/9/12-11\9\7--------7-----9\7-----|
B-----------------------------10\9---10---------|
G-----------------------------------------------|
D-----------------------------------------------|
A-----------------------------------------------|
E-----------------------------------------------|

e---------------------7-----------------9--|
B--10\9\7-----------7---7------------7-----|
G-----------9\8----8-------8-------8-------|
D-----------------9-----------9--7---------|
A------------------------------------------|
E------------------------------------------|

e----------7-----------5----------------------------|
B-------9-----------7--------------9------------7---|
G----9-----------8---------------9-----------8------|
D--6--------------------------9-----------9---------|
A-------------9-----------7------------6------------|
E---------------------------------------------------|

e----------------------------7-----------------8--|
B-----------5-------------7----7-----------7------|
G--------6-------8----8----------8------8---------|
D-----8-------------9----------------9------------|
A--4----------------------------------------------|
E-------------------------------------------------|

e--------7---------------------------------|
B-----8-----------10--------8--------------|
G--9-----------8----------9-----------9\8--|
D------------7---------10-----------8------|
A---------------------------------7--------|
E------------------------------------------|

e--7\6-------------------------------------7----|
B-------9\7--------------------------------7----|
G------------9\8\6-------------------------8----|
D--------------------9\8\6----------------------|
A----------------------------9\7\6--------------|
E------------------------------------9--7-------|

e------------------------0-------------------------------|
B--------2--0-0--0-0-0-0---4-2-0-------------------------|
G--1/2--------------------------------3-2-1--1-----------|
D--------------------------------------------------4-4-4-|
A--------------------------------------------------------|
E--------------------------------------------------------|

e--------------------------------------------------|
B-------------0------------------------------------|
G----------------3-2-1-------------------------1---|
D--4--4--4-------------4-2-1--------------------2--|
A---------------------------------4--2-2-2-2-------|
E--------------------------------------------------|

e----------------------------------------------------|
B----------------------------------------------------|
G----------------------------------------------------|
D------------------4---------------------------------|
A--4--2--0--0-0-0-----6--------------------4/6/7-----|
E--------------------------5--4/7\5\4/5/7------------|

e-----------------------|
B-----------------------|
G-----------4--6--------|
D--4/6/7----2--2--6--4--|
A-----------------7--6--|
E-----------------------|

e------------------------0-------------------------------|
B--------2--0-0--0-0-0-0---4-2-0-------------------------|
G--1/2--------------------------------3-2-1--1-----------|
D--------------------------------------------------4-4-4-|
A--------------------------------------------------------|
E--------------------------------------------------------|

e--------------------------------------------------|
B-------------0------------------------------------|
G----------------3-2-1-----------------------------|
D--4--4--4-------------4-2-1-----------------------|
A---------------------------------4--2-2-2-2-3-4---|
E--------------------------------------------------|

e----------------------------------------------------|
B------------------------12\9/12\9-----9-------------|
G-------------1-2-3-----------------9-----11------9--|
D--1-2-3-4-------------------------------------13----|
A----------------------------------------------------|
E----------------------------------------------------|

That's all for now
Thank you for viewing!!
Добавлено: 30.05.2016
Другие материалы по этой песне:
  • Аккорды и текст

Страница создана 30.05.2016
http://primanota.ru/mozart-wolfgang-amadeus/piano-concerto-no-23-chords.htm
Привет, Гость.
Предлагаем пройти революционный курс по гитаре.
Подарок от PrimaNota.Ru, забирай!