PrimaNota.ru - самый крупный в мире бесплатный архив песенных текстов, аккордов, табулатур и нот


Моцарт Вольфганг Амадей - Twinkle Twinkle Little Star - таба, видео

Регистрация Запомнить меня
Войти через:  Facebook Google Twitter Vk Yandex Mail.ru

Моцарт Вольфганг Амадей - Twinkle Twinkle Little Star - таба, видео

Печатать
Просмотров: 82
-------------------------------------------------------------------------------
                             Twinkle Twinkle Little Star Tab
-------------------------------------------------------------------------------
Tabbed by: Alex Le
E-mail: alexle1497@gmail.com

Tuning: Standard

A very simple classical guitar song; hope you enjoy!

e|--------3---3---5---5---3---3---1---1----0---0-----------------------------------|
B|1---1---------------6-----------------------------3-----3-----1-----1------------|
G|--0---0---0---0---5---5---0---0---2---2----0---0-----0-----0-----0-----0---------|
D|----------------3----------------------------------------------------------------|
A|3-------3---------------3----------------3--------------------3------------------|
E|--------------------------------1-----------------3------------------------------|

e|3-----3-----1----1-----0-----0---------------------------------------------------|
B|------1----------1-----------1-----3--------3------------------------------------|
G|---0-----0----2-----2-----0-----0--------0---------------------------------------| 2x
D|--------------------------------------0------------------------------------------|
A|3----------------------3---------------------------------------------------------|
E|------------1----------------------3---------------------------------------------|

e|--------3---3---5---5---3---3---1---1----0---0----------3-------0----------------|
B|1---1---------------6-----------------------------3-------------1----------------|
G|--0---0---0---0---5---5---0---0---2---2----0---0-----0-----0----0----------------|
D|----------------3-----------------------------------------------2----------------|
A|3-------3---------------3----------------3----------------------3----------------|
E|--------------------------------1-----------------3------------------------------|


Добавлено: 30.05.2016
Другие материалы по этой песне:
  • Аккорды и текст

Страница создана 30.05.2016
http://primanota.ru/mozart-wolfgang-amadeus/twinkle-twinkle-little-star-chords.htm
Привет, Гость.
Предлагаем пройти революционный курс по гитаре.
Подарок от PrimaNota.Ru, забирай!