PrimaNota.ru - самый крупный в мире бесплатный архив песенных текстов, аккордов, табулатур и нот


Motorhead - Smiling Like A Killer - аккорды и текст, таба, видео

Регистрация Запомнить меня
Войти через:  Facebook Google Twitter Vk Yandex Mail.ru

Motorhead - Smiling Like A Killer - аккорды и текст, таба, видео

Печатать
Просмотров: 513
Smiling Like A Killer
Motorhead
Eb Tuning

e|-------------------------------------------|
B|-------------------------------------------|
G|-9-9-7-9-x-x-9-9-7-9-x-x-9-9-7-9-x-x-9-9-7-|
D|-9-9-7-9-x-x-9-9-7-9-x-x-9-9-7-9-x-x-9-9-7-|
A|-7-7-7-7-x-x-7-7-7-7-x-x-7-7-7-7-x-x-7-7-7-|
E|-------------------------------------------|

E|-------------------------------------------|
B|-------------------------------------------|
G|-9-x-x-9-9-7-9-x-x-9-9-7-9-x-x-9-9-7-9-x-x-|
D|-9-x-x-9-9-7-9-x-x-9-9-7-9-x-x-9-9-7-9-x-x-|
A|-7-x-x-7-7-7-7-x-x-7-7-7-7-x-x-7-7-7-7-x-x-|
E|-------------------------------------------|

=======================================================
(I'm the one you never see, in the dead of night) etc

e|------------------------------------------------|(sometimes end on)|------|
B|------------------------------------------------| |------|
G|-9-9-7-9-x-x-9-9-7-9-x-x------------------------| |------|
D|-9-9-7-9-x-x-9-9-7-9-x-x-10-10-10-x-x-10-10-10--| |-9-9-9|
A|-7-7-7-7-x-x-7-7-7-7-x-x-10-10-10-x-x-10-10-10--| |-9-9-9|
E|--------------------------8--8--8-x-x-8--8--8---| |-7-7-7|


======================================================
(Killers in the house, Killers in the yard) etc

e|-------------------------------------------------|(sometimes end with
B|-------------------------------------------------|lots of percussion muting)
G|----------------------9-9-7-9-x-x-9-9-7-9-x-x----|
D|--7-------------------9-9-7-9-x-x-9-9-7-9-x-x----|
A|--7-------------------7-7-7-7-x-x-7-7-7-7-x-x----|
E|--5----------------------------------------------|


========================================================
(smiling at your pets, they know where you come from,
they know where you come from)
e|--------------------------------------------------------------------------|
B|--------------------------------------------------------------------------|
G|--------------------------------------------------------------------------|
D|-5-------------7------9--9--11--9--11--9--11--9--11--9--11--9--11--9--11--|
A|-5-------------7------9--9--11--9--11--9--11--9--11--9--11--9--11--9--11--|
E|-3-------------5------7--7--7---7--7---7--7---7--7---7--7---7--7---7--7---|


===========================================================
(behind solo)

e|-------------------------------------------------------|
B|-------------------------------------------------------|
G|-7-----9-----7-----------------------7-----9-----7-----|
D|-7--7--9--9--7--7--2-----------------7--7--9--9--7--7--|
A|-5--7--7--9--5--7--2--(pickscrape)---5--7--7--9--5--7--|
E|----5-----7-----5--0--------------------5-----7-----5--|

E|-------------------------------------------------|
B|-------------------------------------------------|
G|-------------------------------------------------|
D|-9--9--11--9--11-9--11--9--11-9--11-9--11--9--11-|
A|-9--9--11--9--11-9--11--9--11-9--11-9--11--9--11-|
E|-7--7--7---7--7--7--7---7--7--7--7--7--7---7--7--|
Добавлено: 29.03.2014
Другие материалы по этой песне:

Страница создана 14.03.2012
http://primanota.ru/motorhead/smiling-like-a-killer-chords.htm
Привет, Гость.
Предлагаем пройти революционный курс по гитаре.
Подарок от PrimaNota.Ru, забирай!