PrimaNota.ru - самый крупный в мире бесплатный архив песенных текстов, аккордов, табулатур и нот


Motorhead - Teach You How To Sing The Blues - текст песни, бас-таба, видео

Регистрация Запомнить меня
Войти через:  Facebook Google Twitter Vk Yandex Mail.ru

Motorhead - Teach You How To Sing The Blues - текст песни, бас-таба, видео

Печатать
Просмотров: 141
Intro
F#|----------------------------------------------------|
C#|----------------------9-9-9-9-9-9-9-9-8-8-8-8-8-7-5-|
G#|------7-7-9-9-9-7-9-7-------------------------------|
C#|-9X24-----------------------------------------------|

Verse
|-------------------------------|
|-------------------------------|
|-------------------------------|2X
|-2-2-2-2-2-2-2-2--2-2-3--2-2-3-|

|-------------------------------|
|-------------------------------|
|-------------------------------|1X
|-2-2-2-2-2-2-2-2--2-2-5--2-2-5-|

|-------------------------------|
|-----------------8-8-8-8-8-7-5-|
|-------------------------------|1X
|-2-2-2-2-2-2-2-2---------------|

Pre Chorus (Just play the verse)
Chorus 2X
|--------------------------------|
|--------------------------------|
|--------------------------------|3X
|-2---2-2-5--2-2-7---7-5-5-7---7-|

|--------------------------------|
|--------------------------------|
|--------------------------------|
|-2---2-2-5--2-2-7---7-5-5-8---8-|

Intro
Verse
Pre Chorus
Chorus

Solo 2X
|-----------------------------------------|
|-----------------------------------------|
|-----------------------------------------|
|-9X16—3X16-2X16-3X16-9X16-3X16-2X16-5X32-|

Intro
Chorus

Outro
|----------------------|
|----------------------|
|------8-8-8-8-8-7-5---|
|-9X24---------------2-|
Добавлено: 23.10.2013
Другие материалы по этой песне:

Страница создана 20.04.2012
http://primanota.ru/motorhead/teach-you-how-to-sing-the-blues-chords.htm
Привет, Гость.
Предлагаем пройти революционный курс по гитаре.
Подарок от PrimaNota.Ru, забирай!