PrimaNota.ru - самый крупный в мире бесплатный архив песенных текстов, аккордов, табулатур и нот


Motley Crue - Bittersuite - текст песни, таба, видео

Регистрация Запомнить меня
Войти через:  Facebook Google Twitter Vk Yandex Mail.ru

Motley Crue - Bittersuite - текст песни, таба, видео

Печатать
Просмотров: 248
Авторы музыки: Mick Mars
Авторы текста: Mick Mars
-------------------------------------------------------------------------------
			     BITTERSUITE- MOTLEY CRUE
-------------------------------------------------------------------------------
Tabbed by: Fabien.M

I didn't tab this. I couldn't find it on UG so I went searching and eventually 
found this and thought I'd submit it.

Tuning:D G C F A D 


 /  slide up
 \  slide down
 h  hammer-on
 p  pull-off
 ~  vibrato
 b  bend
 +  harmonic
 x  Mute note

D|-------------------------------------------------------------------------|
A|--------------5b5-------6------------------------------------------------|
F|-----4b4----------7b7-5-7b7-5---------5-7b7-5-7-5-7----4-5-4-------5-4---|
C|-----------7------------------7-----7------------------------7-5-7-----7-|
G|-------------------------------------------------------------------------|
D|-------------------------------------------------------------------------|

D|-----10----13-12-10----8-10-8-7-5----------------------------------------|
A|--10----10-----------8------------------------5-6-5---5------5-----------|
F|-----------------------------------5-7b7-5-7-------7---5-7---5-7-7-7-7-7-7|
C|----------------------------------7-----------------------7--------------|
G|-------------------------------------------------------------------------|
D|-------------------------------------------------------------------------|

D|----------------------------------------------------10-10-12-10-13-10-12-10|
A|----------------------------------------13-------------------------------|
F|-------------------------------12-14-16----14-12-14----------------------|
C|--------------------9-10-12-14-------------------------------------------|
G|----------7-8-10-12------------------------------------------------------|
D|-5-7-8-10----------------------------------------------------------------|

D|10b10b10b10b-10----------10----------------------12-10-------------------|
A|13b13b13b13b-------9-12----13-12-13-12----10-13-------12-13-12-----------|
F|-----------------9---------------------10--------------------------------|
C|-------------------------------------------------------------------------|
G|-------------------------------------------------------------------------|
D|-------------------------------------------------------------------------|

D|--------10-----------------------12-10-----------------10----------------|
A|---9-12----13-12-13-12-----10-13-------12-13-12---9-12----13-12----------|
F|-9----------------------10----------------------9---------------9\-------|
C|-------------------------------------------------------------------------|
G|-------------------------------------------------------------------------|
D|-------------------------------------------------------------------------|

D|-------------------------------------------------------------------------|
A|---------------------5-6-8-6-5---------6---------------------------------|
F|-----4-5-4-5-4-----7-----------7-7b7-5-7b7-5-----------------------------|
C|---7-----------7-7---------------------------7\--------------------------|
G|-7-----------------------------------------------------------------------|
D|-------------------------------------------------------------------------|

D|----------------------------------------------17-------20-20-20-22-20-19-|
A|-------------5-5---5-5-8-12b12-10-15-15-17-18----20----------------------|
F|---5-7b7-5-7-----7----------------------------------19-------------------|
C|-7-----------------------------------------------------------------------|
G|-------------------------------------------------------------------------|
D|-------------------------------------------------------------------------|

D|-------------------------17----------17-17-19-17-20-17-19-17-20-17-------|
A|-22-15b15-13-15-15b15-13----13-15----------------------------------------|
F|----------------------------------14-------------------------------------|
C|-------------------------------------------------------------------------|
G|-------------------------------------------------------------------------|
D|-------------------------------------------------------------------------|

D|17b17b17b17b17b17b-------------------------------------------------------|
A|20b20b20b20b20b20b-------------------------------------------------------|
F|-------------------------------------------------------------------------|
C|-------------------------------------------------------------------------|
G|----------------------0-3-5b5-3-5-3-5-0~---------------------------------|
D|-------------------------------------------------------------------------|

D|-------------------------19-------19-------19-22-20-19-17-19-20----------|
A|----------------------------21-17----21-17----------------------22-18----|
F|-------------------------------------------------------------------------|
C|-------------------------------------------------------------------------|
G|---17b17-15-17-17b17-15--------------------------------------------------|
D|-------------------------------------------------------------------------|

D|--20-22b22-20-19-20-19-------19-------19-22-20-19-17-19-20-------20------|
A|-----------------------21-17----21-17----------------------22-18---22-18-|
F|-------------------------------------------------------------------------|
C|-------------------------------------------------------------------------|
G|-------------------------------------------------------------------------|
D|-------------------------------------------------------------------------|

D|-20-22b22-20-19-20-19-------19-------19-22-20-19-17-19-------------------|
A|----------------------21-17----21-17-------------------17\---------------|
F|-------------------------------------------------------------------------|
C|-------------------------------------------------------------------------|
G|-------------------------------------------------------------------------|
D|-------------------------------------------------------------------------|

D|-17b17b17b17b17b-17-17-17-17-17-17-17--20b----------13-------------------|
A|-20b20b20b20b20b---------------------------15b15-13-15b15-13-------------|
F|-------------------------------------------------------------14\-7b7-5-7b7|
C|-------------------------------------------------------------------------|
G|-------------------------------------------------------------------------|
D|-------------------------------------------------------------------------|

D|------5------------------------------------------------------------------|
A|---8b---8-5b---5--------------------------------13b13-15-13-12-----------|
F|-5-----------7---7-5---7-5-------------------------------------14--------|
C|---------------------7-----7-5-7----------10-14--------------------------|
G|---------------------------------10-11-12--------------------------------|
D|-------------------------------------------------------------------------|

D|-------------------------------------------------------------------------|
A|----------------8b-------------------------------------------------------|
F|-7b7-5-7--7b7-5----5-7---------------------------------------------------|
C|-----------------------7-10-9-12-\\\-------------------------------------|
G|-------------------------------------------------------------------------|
D|-------------------------------------------------------------------------|

D|-------------------10-10-12-10-13-10-12-10-13-10-10b10b10b10b---------10-|
A|----13----13-15b15-------------------------------13b13b13b13b----9-12----|
F|-12----14------------------------------------------------------9---------|
C|-------------------------------------------------------------------------|
G|-------------------------------------------------------------------------|
D|-------------------------------------------------------------------------|

D|----------------------12-10-----------------10----------------------12-10|
A|-13-12-13-12----10-13-------12-13-12---9-12----13-12-13-12----10-13------|
F|-------------10----------------------9---------------------10------------|
C|-------------------------------------------------------------------------|
G|-------------------------------------------------------------------------|
D|-------------------------------------------------------------------------|

D|-----------------10--------------10----13-12-10---8-10-8-7---------------|
A|-12-13-12---9-12----13-12-----10----10----------8----------8/10----------|
F|----------9---------------9\\--------------------------------------------|
C|-------------------------------------------------------------------------|
G|-------------------------------------------------------------------------|
D|-------------------------------------------------------------------------|

Добавлено: 28.07.2013
Другие материалы по этой песне:
  • Аккорды и текст

Страница создана 28.07.2013
http://primanota.ru/motley-crue/bittersuite-chords.htm
Привет, Гость.
Предлагаем пройти революционный курс по гитаре.
Подарок от PrimaNota.Ru, забирай!