PrimaNota.ru - самый крупный в мире бесплатный архив песенных текстов, аккордов, табулатур и нот


Motley Crue - Brandon - текст песни, таба, видео

Регистрация Запомнить меня
Войти через:  Facebook Google Twitter Vk Yandex Mail.ru

Motley Crue - Brandon - текст песни, таба, видео

Печатать
Просмотров: 209
Авторы музыки: Tommy Lee
Авторы текста: Tommy Lee
brandon
motley crue

h- hammeron
p- pulloff
/- slide up
\- slide down
(#)  ghost note

D tuning

This is the bulk of the song. Theres a violin and piano,
both are transcribed for guitar


intro- Violin
this can be played higher to sound more like the violin

d----------10---12-----14-/16----14-12-10-|
a--12---10-----------14-------------------|
f----12------------14---------16----------|
c-----------------------------------------|
g-----------------------------------------|
d-----------------------------------------|

verse- piano
   C
d-----------------15-14-12h14p12-10----|
a-----------------------------------12-|
f--7-7-7--7--7--7----------------------|
c--0-0-0-(0)-0-(0)---------------------|
g--------------------------------------|
d--------------------------------------|

d---------------------|
a---------------------|
f--7-7-7-7-7--9-7-9-7-|
c--0-0-0---0--------0-|
g---------------------|
d---------------------|

pre chor- violin piano together
d-------------------------------|
a--33-55--66--8--8-/10/11/12\-8-|
f--44-55--66--8-(8)-------------|
c--55-77--88--10(10)------------|
g--55-77--88--10(10)------------|
d--33-55--66--8-(8)-------------|

d----------------|
a--33-55--66--8--|
f--44-55--66--8--|
c--55-77--88--10-|
g--55-77--88--10-|
d--33-55--66--8--|

verse- Piano & Violin
    dont know all the violin part
d--------------------------...19-17-19-17/19-17-15-|
a--------------------------------------------------|
f--------------------------------------------------|
c--------------------------------------------------|
g--------------------------------------------------|
d--3--2--0-0-2--3--2--0-0-< piano just does this---|

                         violin part
d---------------------19---19----19--------19h20p19--------|
a-----------------------22---22-----22(22)-----------22-20-|
f----------------------------------------------------------|
c----------------------------------------------------------|
g----------------------------------------------------------|
d--piano same as above-------------------------------------|

pre chor- violin piano together
d-------------------------------|
a--33-55--66--8--8-/10/11/12\-8-|
f--44-55--66--8-(8)-------------|
c--55-77--88--10(10)------------|
g--55-77--88--10(10)------------|
d--33-55--66--8-(8)-------------|

d----------------|
a--33-55--66--8--|
f--44-55--66--8--|
c--55-77--88--10-|
g--55-77--88--10-|
d--33-55--66--8--|


"you are the one"  violin part

d---------17-19--22---24-22--20-19h20p19----19h20--------------|
a--/20-20----------20---------------------22------22--20p19h20-|
f--------------------------------------------------------------|
c--------------------------------------------------------------|
g--------------------------------------------------------------|
d--------------------------------------------------------------|

after this tommy plays something similar to the intro on the higher notes followed with 
line including imaginary notes[24 25 26th frets]
on the E string.

intro out- Violin

d----------10---12-----14-/16----14-12-10-|
a--12---10-----------14-------------------|
f----12------------14---------16----------|
c-----------------------------------------|
g-----------------------------------------|
d-----------------------------------------|

questions comments  email me
valkeyrie3@hotmail.com
Добавлено: 06.06.2013
Другие материалы по этой песне:
  • Аккорды и текст

Страница создана 28.02.2012
http://primanota.ru/motley-crue/brandon-chords.htm
Привет, Гость.
Предлагаем пройти революционный курс по гитаре.
Подарок от PrimaNota.Ru, забирай!