PrimaNota.ru - самый крупный в мире бесплатный архив песенных текстов, аккордов, табулатур и нот


Motley Crue - City Boy Blues - текст песни, таба, бас-таба, видео

Регистрация Запомнить меня
Войти через:  Facebook Google Twitter Vk Yandex Mail.ru

Motley Crue - City Boy Blues - текст песни, таба, бас-таба, видео

Печатать
Просмотров: 118
Авторы музыки: Mick Mars, Vince Neil, Nikki Sixx
Авторы текста: Nikki Sixx
Band- Motley Crue
Song- City Boy Blues

D------3-----3--3-----3-----3--3-----3-----3--3--|------------------------------|
A------3-----3--3-----2-----2--2-----1-----1--1--|------------------------------|
F------------------------------------------------|------------------------------|
C------------------------------------------------|------------------------------|
G------------------------------------------------|------------------------------|
D------------------------------------------------|------------------------------|

D---------------------------|---------------------------------------------------|
A---------------------------|---------------------------------------------------|
F---------------------------|---------------------------------------------------|
C---------------------------|---------------------------------------------------|
G------------------5--4-----|---------------------------------------------------|
D---0-----0--2--3-----------|---------------------------------------------------|

D------3-----3--3-----3-----3--3-----3-----3--3--|------------------------------|
A------3-----3--3-----2-----2--2-----1-----1--1--|------------------------------|
F------------------------------------------------|------------------------------|
C------------------------------------------------|------------------------------|
G------------------------------------------------|------------------------------|
D------------------------------------------------|------------------------------|

D---------------------------|--3-----3--3-----3-----3--3-----3-----3--3--|------|
A---------------------------|--3-----3--3-----2-----2--2-----1-----1--1--|------|
F---------------------------|--------------------------------------------|------|
C---------------------------|--------------------------------------------|------|
G------------------5--4-----|--------------------------------------------|------|
D---0-----0--2--3-----------|--------------------------------------------|------|

D---------------------------|---------------------------------------------------|
A---------------------------|---------------------------------------------------|
F---------------------------|---------------------------------------------------|
C---------------------------|---------------------------------------------------|
G------------------5--4-----|---------------------------------------------------|
D---0-----0--2--3-----------|---------------------------------------------------|

D---------------------------------------------------|---------------------------|
A---------------------------------------------------|---------------------------|
F---------------------------------------------------|---------------------------|
C---------------------------------------------------|---------------------------|
G------------7-----5--7-----------5--7--------5--4--|---------------------------|
D------0--------------------0-----------2--3--------|---------------------------|

D---------------------------------------------------------------------|---------|
A---------------------------------------------------------------------|---------|
F---------------------------------------------------------------------|---------|
C---------------------------5-----7--7--5--7-----5--7-----7--7-----5--|---------|
G---------------------------5-----7--7--5--7-----5--7-----5--7-----5--|---------|
D---------------------------------------------------------------------|---------|

D--------------------------------------------------|----------------------------|
A--------------------------------------------------|----------------------------|
F--------------------------------------------------|----------------------------|
C---12-----14--14-----14-----12-----14--14-----14--|----------------------------|
G---12-----14--14-----14-----12-----14--14-----14--|----------------------------|
D--------------------------------------------------|----------------------------|

D---------------------------------------------------|---------------------------|
A---------------------------------------------------|---------------------------|
F---------------------------------------------------|---------------------------|
C---------5-----7--7--5--7-----5--7-----7--7-----5--|---------------------------|
G---------5-----7--7--5--7-----5--7-----5--7-----5--|---------------------------|
D---------------------------------------------------|---------------------------|

D--------------------------------------------------|----------------------------|
A--------------------------------------------------|----------------------------|
F--------------------------------------------------|----------------------------|
C---12-----14--14-----14-----12-----14--14-----14--|----------------------------|
G---12-----14--14-----14-----12-----14--14-----14--|----------------------------|
D--------------------------------------------------|----------------------------|


D---------------------------------------------------|---------------------------|
A---------------------------------------------------|---------------------------|
F---------------------------------------------------|---------------------------|
C---------5-----7--7--5--7-----5--7-----7--7-----5--|---------------------------|
G---------5-----7--7--5--7-----5--7-----5--7-----5--|---------------------------|
D---------------------------------------------------|---------------------------|

D--------------------------------------------------|----------------------------|
A--------------------------------------------------|----------------------------|
F--------------------------------------------------|----------------------------|
C---12-----14--14-----14-----12-----14--14-----14--|----------------------------|
G---12-----14--14-----14-----12-----14--14-----14--|----------------------------|
D--------------------------------------------------|----------------------------|

D---------------------------------------------------|---------------------------|
A---------------------------------------------------|---------------------------|
F---------------------------------------------------|---------------------------|
C---------5-----7--7--5--7-----5--7-----7--7-----5--|---------------------------|
G---------5-----7--7--5--7-----5--7-----5--7-----5--|---------------------------|
D---------------------------------------------------|---------------------------|

D--------------------------------------------------|----------------------------|
A--------------------------------------------------|----------------------------|
F--------------------------------------------------|----------------------------|
C---12-----14--14-----14-----12-----14--14-----14--|----------------------------|
G---12-----14--14-----14-----12-----14--14-----14--|----------------------------|
D--------------------------------------------------|----------------------------|

D---------------------------------------------------------|---------------------|
A---------------------------------------------------------|---------------------|
F------------------------9--8-----------------------------|---------------------|
C---------9-----9--9--9--9-----9--9-----------------------|---------------------|
G---------9-----9--9--9--9-----9--9-----------5-----------|---------------------|
D------------------------------------0--2--3-----0--2--3--|---------------------|

D-------------------------------------------------------------------------------|
A-------------------------------------------------------------------------------|
F-------------------------------------------------------------------------------|
C-------------------------------------------------------------------------------|
G---------------------------------------------------------4--5-----------2------|
D---------------------------------------------------0--------------0------------|

D------------------|--------------------------------------|---------------------|
A------------------|--------------------------------------|---------------------|
F------------------|--------------------------------------|---------------------|
C------------------|-----4--5--------2--4--5-----4--5-----|---------------------|
G---4--5-----4--5--|--0--------0--------------0-----------|---------------------|
D---------0--------|--------------------------------------|---------------------|

D---------------------------------------------------------|---------------------|
A---------------------------------------------------------|---------------------|
F---------------------------------------------------------|---------------------|
C---------------------------------------------------------|---------------------|
G------------------------4--5-----------2--4--5-----4--5--|---------------------|
D------------------0--------------0--------------0--------|---------------------|

D---------------------------------------|---------------------------------------|
A---------------------------------------|---------------------------------------|
F---------------------------------------|---------------------------------------|
C------4--5--------2--4--5-----4--5-----|---------------------------------------|
G---0--------0--------------0-----------|---------------------------------------|
D---------------------------------------|---------------------------------------|

D---------------------------------------------------------|---------------------|
A---------------------------------------------------------|---------------------|
F---------------------------------------------------------|---------------------|
C---------------------------------------------------------|---------------------|
G------------------------4--5-----------2--4--5-----4--5--|---------------------|
D------------------0--------------0--------------0--------|---------------------|

D------------------------------------|------------------------------------------|
A------------------------------------|------------------------------------------|
F---------------------9--8-----------|------------------------------------------|
C------9-----9--9--9--9-----9--9-----|------------------------------------------|
G------9-----9--9--9--9-----9--9-----|------------------------------------------|
D------------------------------------|------------------------------------------|

D---------------------------------------------------------------------|---------|
A---------------------------------------------------------------------|---------|
F---------------------------------------------------------------------|---------|
C---------------------------------------------------------------------|---------|
G------------------------------7-----5--7-----------5--7--------5--4--|---------|
D------------------------0--------------------0-----------2--3--------|---------|

D---------------------------------------------------|---------------------------|
A---------------------------------------------------|---------------------------|
F---------------------------------------------------|---------------------------|
C---------------------------------------------------|---------------------------|
G------------7-----5--7-----------5--7--------5--4--|---------------------------|
D------0--------------------0-----------2--3--------|---------------------------|

D---------------------------------------------------|---------------------------|
A---------------------------------------------------|---------------------------|
F---------------------------------------------------|---------------------------|
C---------5-----7--7--5--7-----5--7-----7--7-----5--|---------------------------|
G---------5-----7--7--5--7-----5--7-----5--7-----5--|---------------------------|
D---------------------------------------------------|---------------------------|

D--------------------------------------------------|----------------------------|
A--------------------------------------------------|----------------------------|
F--------------------------------------------------|----------------------------|
C---12-----14--14-----14-----12-----14--14-----14--|----------------------------|
G---12-----14--14-----14-----12-----14--14-----14--|----------------------------|
D--------------------------------------------------|----------------------------|

D---------------------------------------------------|---------------------------|
A---------------------------------------------------|---------------------------|
F---------------------------------------------------|---------------------------|
C---------5-----7--7--5--7-----5--7-----7--7-----5--|---------------------------|
G---------5-----7--7--5--7-----5--7-----5--7-----5--|---------------------------|
D---------------------------------------------------|---------------------------|

D--------------------------------------------------|----------------------------|
A--------------------------------------------------|----------------------------|
F--------------------------------------------------|----------------------------|
C---12-----14--14-----14-----12-----14--14-----14--|----------------------------|
G---12-----14--14-----14-----12-----14--14-----14--|----------------------------|
D--------------------------------------------------|----------------------------|

D---------------------------------------------------------|---------------------|
A---------------------------------------------------------|---------------------|
F------------------------9--8-----------------------------|---------------------|
C---------9-----9--9--9--9-----9--9-----------------------|---------------------|
G---------9-----9--9--9--9-----9--9-----------5-----------|---------------------|
D------------------------------------0--2--3-----0--2--3--|---------------------|

D-------------------------------------------------------------------------------|
A-------------------------------------------------------------------------------|
F-------------------------------------------------------------------------------|
C-------------------------------------------------------------------------------|
G------------------------------------------------------------4--5---------------|
D------------------------------------------------------0--------------0---------|

D---------------------|--------------------------------------|------------------|
A---------------------|--------------------------------------|------------------|
F---------------------|--------------------------------------|------------------|
C---------------------|-----4--5--------2--4--5-----4--5-----|------------------|
G---2--4--5-----4--5--|--0--------0--------------0-----------|------------------|
D------------0--------|--------------------------------------|------------------|

D---------------------------------------------------------|---------------------|
A---------------------------------------------------------|---------------------|
F---------------------------------------------------------|---------------------|
C---------------------------------------------------------|---------------------|
G------------------------4--5-----------2--4--5-----4--5--|---------------------|
D------------------0--------------0--------------0--------|---------------------|

D---------------------------------------|---------------------------------------|
A---------------------------------------|---------------------------------------|
F---------------------------------------|---------------------------------------|
C------4--5--------2--4--5-----4--5-----|---------------------------------------|
G---0--------0--------------0-----------|---------------------------------------|
D---------------------------------------|---------------------------------------|

D---------------------------------------------------------|---------------------|
A---------------------------------------------------------|---------------------|
F---------------------------------------------------------|---------------------|
C---------------------------------------------------------|---------------------|
G------------------------4--5-----------2--4--5-----4--5--|---------------------|
D------------------0--------------0--------------0--------|---------------------|

D------------------------------------|------------------------------------------|
A------------------------------------|------------------------------------------|
F---------------------9--8-----------|------------------------------------------|
C------9-----9--9--9--9-----9--9-----|------------------------------------------|
G------9-----9--9--9--9-----9--9-----|------------------------------------------|
D------------------------------------|------------------------------------------|

D------------------3-----3--3-----3-----3--3-----3-----3--3--|------------------|
A------------------3-----3--3-----2-----2--2-----1-----1--1--|------------------|
F------------------------------------------------------------|------------------|
C------------------------------------------------------------|------------------|
G------------------------------------------------------------|------------------|
D------------------------------------------------------------|------------------|

D------------------------------|------------------------------------------------|
A------------------------------|------------------------------------------------|
F------------------------------|------------------------------------------------|
C------------------------------|------------------------------------------------|
G------------------5--4--------|------------------------------------------------|
D---0-----0--2--3--------------|------------------------------------------------|

D------3-----3--3-----3-----3--3-----3-----3--3--|------------------------------|
A------3-----3--3-----2-----2--2-----1-----1--1--|------------------------------|
F------------------------------------------------|------------------------------|
C------------------------------------------------|------------------------------|
G------------------------------------------------|------------------------------|
D------------------------------------------------|------------------------------|

D---------------------------|---------------------------------------------------|
A---------------------------|---------------------------------------------------|
F---------------------------|---------------------------------------------------|
C---------------------------|---------------------------------------------------|
G------------------5--4-----|---------------------------------------------------|
D---0-----0--2--3-----------|---------------------------------------------------|

D------3-----3--3-----3-----3--3-----3-----3--3--|------------------------------|
A------3-----3--3-----2-----2--2-----1-----1--1--|------------------------------|
F------------------------------------------------|------------------------------|
C------------------------------------------------|------------------------------|
G------------------------------------------------|------------------------------|
D------------------------------------------------|------------------------------|

D---------------------------|---------------------------------------------------|
A---------------------------|---------------------------------------------------|
F---------------------------|---------------------------------------------------|
C---------------------------|---------------------------------------------------|
G------------------5--4-----|---------------------------------------------------|
D---0-----0--2--3-----------|---------------------------------------------------|

D---------------------------------------------------|---------------------------|
A---------------------------------------------------|---------------------------|
F---------------------------------------------------|---------------------------|
C---------------------------------------------------|---------------------------|
G------------7-----5--7-----------5--7--------5--4--|---------------------------|
D------0--------------------0-----------2--3--------|---------------------------|

D---------------------------------------------------|---------------------------|
A---------------------------------------------------|---------------------------|
F---------------------------------------------------|---------------------------|
C---------------------------------------------------|---------------------------|
G------------7-----5--7-----------5--7--------5--4--|---------------------------|
D------0--------------------0-----------2--3--------|---------------------------|

D---------------------------------------------|---------------------------------|
A---------------------------------------------|---------------------------------|
F---------------------------------------------|---------------------------------|
C---------7-----5--7--------5--7--------5--4--|---------------------------------|
G---0-----------------0-----------2--3--------|---------------------------------|
D---------------------------------------------|---------------------------------|

D---------------------------------------------------|---------------------------|
A---------------------------------------------------|---------------------------|
F---------------------------------------------------|---------------------------|
C---------------------------------------------------|---------------------------|
G------------7-----5--7-----------5--7--------5--4--|---------------------------|
D------0--------------------0-----------2--3--------|---------------------------|

D---------------------------------------------|---------------------------------|
A---------------------------------------------|---------------------------------|
F---------------------------------------------|---------------------------------|
C---------7-----5--7--------5--7--------5--4--|---------------------------------|
G---0-----------------0-----------2--3--------|---------------------------------|
D---------------------------------------------|---------------------------------|

D---------------------------------------------------|---------------------------|
A---------------------------------------------------|---------------------------|
F---------------------------------------------------|---------------------------|
C---------------------------------------------------|---------------------------|
G------------7-----5--7-----------5--7--------5--4--|---------------------------|
D------0--------------------0-----------2--3--------|---------------------------|

D-------------------------------|-----------------------------------------------|
A-------------------------------|-----------------------------------------------|
F-------------------------------|-----------------------------------------------|
C---9-----9--9--9--9--9---\--7--|-----------------------------------------------|
G---9-----9--9--9--9--9--\---7--|-----------------------------------------------|
D-------------------------------|-----------------------------------------------|

D---------------------------------------------|---------------------------------|
A---------------------------------------------|---------------------------------|
F---------------------------------------------|---------------------------------|
C---------------------------------------------|---------------------------------|
G------------4--5-----------2--4--5-----4--5--|---------------------------------|
D------0--------------0--------------0--------|---------------------------------|

D---------------------------------------|---------------------------------------|
A---------------------------------------|---------------------------------------|
F---------------------------------------|---------------------------------------|
C------4--5--------2--4--5-----4--5-----|---------------------------------------|
G---0--------0--------------0-----------|---------------------------------------|
D---------------------------------------|---------------------------------------|

D---------------------------------------------------------|---------------------|
A---------------------------------------------------------|---------------------|
F---------------------------------------------------------|---------------------|
C---------------------------------------------------------|---------------------|
G------------------------4--5-----------2--4--5-----4--5--|---------------------|
D------------------0--------------0--------------0--------|---------------------|

D---------------------------------------|---------------------------------------|
A---------------------------------------|---------------------------------------|
F---------------------------------------|---------------------------------------|
C------4--5--------2--4--5-----4--5-----|---------------------------------------|
G---0--------0--------------0-----------|---------------------------------------|
D---------------------------------------|---------------------------------------|

D---------------------------------------------------------|---------------------|
A---------------------------------------------------------|---------------------|
F---------------------------------------------------------|---------------------|
C---------------------------------------------------------|---------------------|
G------------------------4--5-----------2--4--5-----4--5--|---------------------|
D------------------0--------------0--------------0--------|---------------------|

D---------------------------------------|---------------------------------------|
A---------------------------------------|---------------------------------------|
F---------------------9--8--------------|---------------------------------------|
C------9-----9--9--9--9-----9--7--------|---------------------------------------|
G------9-----9--9--9--9-----9--7--------|---------------------------------------|
D---------------------------------------|---------------------------------------|

D---------------------------------------------------------|---------------------|
A---------------------------------------------------------|---------------------|
F---------------------------------------------------------|---------------------|
C---------------------------------------------------------|---------------------|
G------------------------4--5-----------2--4--5-----4--5--|---------------------|
D------------------0--------------0--------------0--------|---------------------|

D------------------------------------|------------------------------------------|
A------------------------------------|------------------------------------------|
F---------------------9--8-----------|------------------------------------------|
C------9-----9--9--9--9-----9--7-----|------------------------------------------|
G------9-----9--9--9--9-----9--7-----|------------------------------------------|
D------------------------------------|------------------------------------------|

D---------------------------------------------------------|---------------------|
A---------------------------------------------------------|---------------------|
F---------------------------------------------------------|---------------------|
C---------------------------------------------------------|---------------------|
G------------------------4--5-----------2--4--5-----4--5--|---------------------|
D------------------0--------------0--------------0--------|---------------------|

D------------------------------------|------------------------------------------|
A------------------------------------|------------------------------------------|
F---------------------9--8-----------|------------------------------------------|
C------9-----9--9--9--9-----9--7-----|------------------------------------------|
G------9-----9--9--9--9-----9--7-----|------------------------------------------|
D------------------------------------|------------------------------------------|


       repeat and fade out
D---------------------------------------------|---------------------------------|
A---------------------------------------------|---------------------------------|
F---------------------------------------------|---------------------------------|
C---------------------------------------------|---------------------------------|
G------------4--5-----------2--4--5-----4--5--|---------------------------------|
D------0--------------0--------------0--------|---------------------------------|


================================================================================
==                           TABLATURE EXPLANATION                            ==
================================================================================

----------                ----------                ----t---|
----5h8--- Hammeron       ----(8)--- Ghost          ----6---| Tap
----------                ---------- Note           --------|
----5p8--- Pulloff        ----------                --------|

----------                ----------                -----p--|
----5/8--- Slide Up       -----x---- Dead           -----7--| Pop
----------                ---------- Note           --s-----|
----5\8--- Slide Down     ----------                --5-----| Slap

----------                ||------|| Repeat         --------|
----5~~~-- Vibrato        ||*----*||                ---5^---| Bend
----------                ||*----*||                --------|
----------                ||------||                --------|

----------                ----------                --------|
-4:------- Time           ----------                --------|
-4:------- Signature      ----------                --------|
----------                ----------                --------|

Rhythm:
  w = whole note            W = dotted whole
  h = half note             H = dotted half
  q = quarter note          Q = dotted quarter
  e = eighth note           E = dotted eighth
  s = sixteenth note        S = dotted sixteenth
  t = 32nd note             T = dotted 32nd
  x = 64th note             X = dotted 64th
  ^ = triplet
Добавлено: 13.08.2013
Другие материалы по этой песне:
  • Аккорды и текст

Страница создана 30.03.2012
http://primanota.ru/motley-crue/city-boy-blues-chords.htm
Привет, Гость.
Предлагаем пройти революционный курс по гитаре.
Подарок от PrimaNota.Ru, забирай!