PrimaNota.ru - самый крупный в мире бесплатный архив песенных текстов, аккордов, табулатур и нот


Motionless In White - Reincarnate - таба, бас-таба, видео

Регистрация Запомнить меня
Войти через:  Facebook Google Twitter Vk Yandex Mail.ru

Motionless In White - Reincarnate - таба, бас-таба, видео

Печатать
Просмотров: 680
Уроки эстрадного вокала в Санкт-Петербурге
Авторы: Chris Motionless, Drew Fulk, Mick Kenney

Title: Reincarnation
Artist: Motionless In White
Tempo = 110

Legend
L - tied note
x - dead note
h - hammer on/pull off
b - bend
s - slide
~ - vibrato
g - ghost note
> - accentuated note
t - trill
M - palm mute
. - staccato
P - popping (bass)
S - slapping (bass)
+ - tapping
W - wide vibrato
< - fade in
w - whammy bar
= - tremolo picking
v - brush up
^ - brush down
V - pick stroke up
n - pick stroke down

GUITAR ONE

B |----|----|----------------------------------------------------|
F#|----|----|----------------------------------------------------|
D |----|----|----------------------------------------------------|
A |----|----|-----------------------5----------------------------|
E |----|----|----------------------------------------------------|
A |----|----|--2--3--2-----2-----2M----2-----2-----3--2--0--2L---|


----------------------------------------------------|
----------------------------------------------------|
----------------------------------------------------|
-----------------------5----------------------------|
----------------------------------------------------|
--2--3--2-----2-----2M----2-----2-----5--3--2--3L---|


----------------------------------------------------|
----------------------------------------------------|
----------------------------------------------------|
-----------------------5----------------------------|
----------------------------------------------------|
--3--5--2-----2-----2M----2-----2-----3--2--0--2L---|


----------------------------------------------------|
----------------------------------------------------|
----------------------------------------------------|
----------------------------------------------------|
----------------------------------------------------|
--2--2--2-----2-----2--2--2--0--------2--3----------|


----------------------------------------------------|
----------------------------------------------------|
----------------------------------------------------|
-----------------------5----------------------------|
--2--3--2-----2-----2M----2-----2-----3--2--0--2L---|
--2--3--2-----2-----2M----2-----2-----3--2--0--2L---|


----------------------------------------------------|
----------------------------------------------------|
----------------------------------------------------|
-----------------------5----------------------------|
--2--3--2-----2-----2M----2-----2-----5--3--2--3L---|
--2--3--2-----2-----2M----2-----2-----5--3--2--3L---|


----------------------------------------------------|
----------------------------------------------------|
----------------------------------------------------|
-----------------------5----------------------------|
--3--5--2-----------2M----2-----2-----3--2--0--2L---|
--3--5--2-----2~----2M----2-----2-----3--2--0--2L---|


----------------------------------------------------|-------|-------|-------|
----------------------------------------------------|-------|-------|-------|
----------------------------------------------------|-------|-------|-------|
----------------------------------------------------|-------|-------|-------|
--2--2--2-----2-----2--2--2--0--------2--3----------|-------|-------|-------|
--2--2--2-----2-----2--2--2--0--------2--3----------|-------|-------|-------|


-------|----------------------------------------------------|
-------|----------------------------------------------------|
-------|----------------------------------------------------|
-------|-----------------------5----------------------------|
-------|--2M-3M-2M----2M----2M----2M----2M----3M-2M-0M-2L---|
-------|--2M-3M-2M----2M----2M----2M----2M----3M-2M-0M-2L---|


----------------------------------------------------|
----------------------------------------------------|
----------------------------------------------------|
-----------------------5----------------------------|
--2M-3M-2M----2M----2M----2M----2M----5M-3M-2M-3L---|
--2M-3M-2M----2M----2M----2M----2M----5M-3M-2M-3L---|


----------------------------------------------------|
----------------------------------------------------|
----------------------------------------------------|
-----------------------5----------------------------|
--3M-5M-2M----2M----2M----2M----2M----3M-2M-0M-2L---|
--3M-5M-2M----2M----2M----2M----2M----3M-2M-0M-2L---|


----------------------------------------------------|-------|-------|
----------------------------------------------------|-------|-------|
----------------------------------------------------|-------|-------|
----------------------------------------------------|-------|-------|
--2M-3M-2M----2M----2M-2M-0M-0M----0M-3M-3M----3M---|-------|-------|
--2M-3M-2M----2M----2M-2M-0M-0M----0M-3M-3M----3M---|-------|-------|


----------------------------------------------------|
----------------------------------------------------|
----------------------------------------------------|
--10-10-10----10----10-10----10----10-10-10-10------|
--10-10-10----10----10-10----10----10-10-10-10------|
--10-10-10----10----10-10----10----10-10-10-10------|


----------------------------------------------------|
----------------------------------------------------|
----------------------------------------------------|
--2--2--2-----2-----2--0-----0-----0--0--0--0-------|
--2--2--2-----2-----2--0-----0-----0--0--0--0-------|
--2--2--2-----2-----2--0-----0-----0--0--0--0-------|


----------------------------------------------------|
----------------------------------------------------|
----------------------------------------------------|
--10-10-10----10----10-10----10----10-10-10-10------|
--10-10-10----10----10-10----10----10-10-10-10------|
--10-10-10----10----10-10----10----10-10-10-10------|


----------------------------------------------------|
----------------------------------------------------|
----------------------------------------------------|
--2--2--2-----2-----2--0-----0-----0--0--0--0-------|
--2--2--2-----2-----2--0-----0-----0--0--0--0-------|
--2--2--2-----2-----2--0-----0-----0--0--0--0-------|


----------------------------------------------------|
----------------------------------------------------|
----------------------------------------------------|
--10-10-10----10----10-10----10----10-10-10-10------|
--10-10-10----10----10-10----10----10-10-10-10------|
--10-10-10----10----10-10----10----10-10-10-10------|


----------------------------------------------------|
----------------------------------------------------|
----------------------------------------------------|
--2--2--2-----2-----2--0-----0-----0--0--0--0-------|
--2--2--2-----2-----2--0-----0-----0--0--0--0-------|
--2--2--2-----2-----2--0-----0-----0--0--0--0-------|


----------------------------------------------------|
----------------------------------------------------|
----------------------------------------------------|
--10-10-10----10----10-10----10----10-10-10-10------|
--10-10-10----10----10-10----10----10-10-10-10------|
--10-10-10----10----10-10----10----10-10-10-10------|


----------------------------|
----------------------------|
--7-----------7-------------|
--7-----------7-------------|
--5-----------5-------------|
----------------------------|


----------------------------------------------------|
----------------------------------------------------|
----------------------------------------------------|
-----------------------5----------------------------|
----------------------------------------------------|
--2--3--2-----2-----2M----2-----2-----3--2--0--2L---|


----------------------------------------------------|
----------------------------------------------------|
----------------------------------------------------|
-----------------------5----------------------------|
----------------------------------------------------|
--2--3--2-----2-----2M----2-----2-----5--3--2--3L---|


----------------------------------------------------|
----------------------------------------------------|
----------------------------------------------------|
-----------------------5----------------------------|
----------------------------------------------------|
--3--5--2-----2-----2M----2-----2-----3--2--0--2L---|


----------------------------------------------------|-------|-------|-------|
----------------------------------------------------|-------|-------|-------|
----------------------------------------------------|-------|-------|-------|
----------------------------------------------------|-------|-------|-------|
----------------------------------------------------|-------|-------|-------|
--2--2--2-----2-----2--2--2--0--------2--3----------|-------|-------|-------|


-------|----------------------------------------------------|
-------|----------------------------------------------------|
-------|----------------------------------------------------|
-------|-----------------------5----------------------------|
-------|--2M-3M-2M----2M----2M----2M----2M----3M-2M-0M-2L---|
-------|--2M-3M-2M----2M----2M----2M----2M----3M-2M-0M-2L---|


----------------------------------------------------|
----------------------------------------------------|
----------------------------------------------------|
-----------------------5----------------------------|
--2M-3M-2M----2M----2M----2M----2M----5M-3M-2M-3L---|
--2M-3M-2M----2M----2M----2M----2M----5M-3M-2M-3L---|


----------------------------------------------------|
----------------------------------------------------|
----------------------------------------------------|
-----------------------5----------------------------|
--3M-5M-2M----2M----2M----2M----2M----3M-2M-0M-2L---|
--3M-5M-2M----2M----2M----2M----2M----3M-2M-0M-2L---|


----------------------------------------------------|----|----|
----------------------------------------------------|----|----|
----------------------------------------------------|----|----|
----------------------------------------------------|----|----|
--2M-3M-2M----2M----2M-2M-0M-0M----0M-3M-3M----3M---|----|----|
--2M-3M-2M----2M----2M-2M-0M-0M----0M-3M-3M----3M---|----|----|


----------------------------------------------------|
----------------------------------------------------|
----------------------------------------------------|
--10-10-10----10----10-10----10----10-10-10-10------|
--10-10-10----10----10-10----10----10-10-10-10------|
--10-10-10----10----10-10----10----10-10-10-10------|


----------------------------------------------------|
----------------------------------------------------|
----------------------------------------------------|
--2--2--2-----2-----2--0-----0-----0--0--0--0-------|
--2--2--2-----2-----2--0-----0-----0--0--0--0-------|
--2--2--2-----2-----2--0-----0-----0--0--0--0-------|


----------------------------------------------------|
----------------------------------------------------|
----------------------------------------------------|
--10-10-10----10----10-10----10----10-10-10-10------|
--10-10-10----10----10-10----10----10-10-10-10------|
--10-10-10----10----10-10----10----10-10-10-10------|


----------------------------------------------------|
----------------------------------------------------|
----------------------------------------------------|
--2--2--2-----2-----2--0-----0-----0--0--0--0-------|
--2--2--2-----2-----2--0-----0-----0--0--0--0-------|
--2--2--2-----2-----2--0-----0-----0--0--0--0-------|


----------------------------------------------------|
----------------------------------------------------|
----------------------------------------------------|
--10-10-10----10----10-10----10----10-10-10-10------|
--10-10-10----10----10-10----10----10-10-10-10------|
--10-10-10----10----10-10----10----10-10-10-10------|


----------------------------------------------------|
----------------------------------------------------|
----------------------------------------------------|
--2--2--2-----2-----2--0-----0-----0--0--0--0-------|
--2--2--2-----2-----2--0-----0-----0--0--0--0-------|
--2--2--2-----2-----2--0-----0-----0--0--0--0-------|


----------------------------------------------------|
----------------------------------------------------|
----------------------------------------------------|
--10-10-10----10----10-10----10----10-10-10-10------|
--10-10-10----10----10-10----10----10-10-10-10------|
--10-10-10----10----10-10----10----10-10-10-10------|


----------------------------|
----------------------------|
--7-----------7-------------|
--7-----------7-------------|
--5-----------5-------------|
----------------------------|


----------------------------------------------------|-------|
----------------------------------------------------|-------|
----------------------------------------------------|-------|
----------------------------------------------------|-------|
----------------------------------------------------|-------|
--3--2-----2----------------------------------------|-------|


----------------------------------------------------|-------|
----------------------------------------------------|-------|
----------------------------------------------------|-------|
----------------------------------------------------|-------|
----------------------------------------------------|-------|
--3--2-----2----------------------------------------|-------|


----------------------------------------------------|
----------------------------------------------------|
----------------------------------------------------|
----------------------------------------------------|
----------------------------------------------------|
--3--2-----2----------------------------------------|


----------------------------------------------------|
----------------------------------------------------|
----------------------------------------------------|
----------------------------------------------------|
----------------------------------------------------|
--3--2-----2----------------------------------------|


----------------------------------------------------|
----------------------------------------------------|
----------------------------------------------------|
----------------------------------------------------|
----------------------------------------------------|
--3--2-----2----------------------------------------|


----------------------------------------------------|
----------------------------------------------------|
----------------------------------------------------|
--------------3-------------------------------------|
----------------------------------------------------|
--3--2-----2-----2-----2----------------------------|


----------------------------------------------------|
----------------------------------------------------|
----------------------------------------------------|
--------------3-----------------------3-------------|
----------------------------------------------------|
--3--2-----2-----2-----2--3--2-----2-----2-----2----|


----------------------------------------------------|
----------------------------------------------------|
----------------------------------------------------|
--------------3-------------------------------------|
----------------------------------------------------|
--3--2-----2-----2-----2--3--3-----3--0--0-----0----|


----------------------------------------------------|
----------------------------------------------------|
----------------------------------------------------|
--------------3-----------------------3-------------|
----------------------------------------------------|
--3--2-----2-----2-----2--3--2-----2-----2-----2----|


----------------------------------------------------|
----------------------------------------------------|
----------------------------------------------------|
--------------3-------------------------------------|
----------------------------------------------------|
--3--2-----2-----2-----2--3--3-----3--0--0-----0----|


----------------------------------------------------|
----------------------------------------------------|
----------------------------------------------------|
--------------3-----------------------3-------------|
----------------------------------------------------|
--3--2-----2-----2-----2--3--2-----2-----2-----2----|


----------------------------------------------------|
----------------------------------------------------|
----------------------------------------------------|
--------------3-------------------------------------|
----------------------------------------------------|
--3--2-----2-----2-----2--3--3-----3--0--0-----0----|


----------------------------------------------------|
----------------------------------------------------|
----------------------------------------------------|
--------------3-----------------------3-------------|
----------------------------------------------------|
--3--2-----2-----2-----2--3--2-----2-----2-----2----|


----------------------------------------------------|
----------------------------------------------------|
----------------------------------------------------|
--------------3-------------------------------------|
----------------------------------------------------|
--3--2-----2-----2-----2--3--3-----3--0--0-----0----|


----------------------------|
----------------------------|
----------------------------|
--------3-----------3-------|
--3--2-----2--3--2-----2----|
--3--2-----2--3--2-----2----|


----------------------------------------------------|
----------------------------------------------------|
----------------------------------------------------|
--------------3-------------------------------------|
--3-----2-----------2-----3--3--3--3--0--0--0--0----|
--3-----2-----------2-----3--3--3--3--0--0--0--0----|


----------------------------|
----------------------------|
----------------------------|
--------3-----------3-------|
--3--2-----2--3--2-----2----|
--3--2-----2--3--2-----2----|


----------------------------------------------------|
----------------------------------------------------|
----------------------------------------------------|
--------------3-------------------------------------|
--3-----2-----------2-----3--3-----3----------------|
--3-----2-----------2-----3--3-----3--3--2--0--2----|


----------------------------|
----------------------------|
----------------------------|
--------3-----------3-------|
--3--2-----2--3--2-----2----|
--3--2-----2--3--2-----2----|


----------------------------------------------------|
----------------------------------------------------|
----------------------------------------------------|
--------------3-------------------------------------|
--3-----2-----------2-----3--3-----3----------------|
--3-----2-----------2-----3--3-----3--3--2--0--2----|


----------------------------------------------------|
----------------------------------------------------|
----------------------------------------------------|
----------------------------------------------------|
--2--3--2-----3-----------2--3--2-----3-------------|
--2--3--2-----------3-----2--3--2-----------3-------|


----------------------------------------------------|----|----|----|----|
----------------------------------------------------|----|----|----|----|
----------------------------------------------------|----|----|----|----|
----------------------------------------------------|----|----|----|----|
--2--3--2-----3-----------3--3-----3--0--0-----0----|----|----|----|----|
--2--3--2-----------3-----3--3-----3--0--0-----0----|----|----|----|----|


----------------------------------------------------|
----------------------------------------------------|
----------------------------------------------------|
--10-10-10----10----10-10----10----10-10-10-10------|
--10-10-10----10----10-10----10----10-10-10-10------|
--10-10-10----10----10-10----10----10-10-10-10------|


----------------------------------------------------|
----------------------------------------------------|
----------------------------------------------------|
--2--2--2-----2-----2--0-----0-----0--0--0--0-------|
--2--2--2-----2-----2--0-----0-----0--0--0--0-------|
--2--2--2-----2-----2--0-----0-----0--0--0--0-------|


----------------------------------------------------|
----------------------------------------------------|
----------------------------------------------------|
--10-10-10----10----10-10----10----10-10-10-10------|
--10-10-10----10----10-10----10----10-10-10-10------|
--10-10-10----10----10-10----10----10-10-10-10------|


----------------------------------------------------|
----------------------------------------------------|
----------------------------------------------------|
--2--2--2-----2-----2--0-----0-----0--0--0--0-------|
--2--2--2-----2-----2--0-----0-----0--0--0--0-------|
--2--2--2-----2-----2--0-----0-----0--0--0--0-------|


----------------------------------------------------|
----------------------------------------------------|
----------------------------------------------------|
--10-10-10----10----10-10----10----10-10-10-10------|
--10-10-10----10----10-10----10----10-10-10-10------|
--10-10-10----10----10-10----10----10-10-10-10------|


----------------------------------------------------|
----------------------------------------------------|
----------------------------------------------------|
--2--2--2-----2-----2--0-----0-----0--0--0--0-------|
--2--2--2-----2-----2--0-----0-----0--0--0--0-------|
--2--2--2-----2-----2--0-----0-----0--0--0--0-------|


----------------------------------------------------|
----------------------------------------------------|
----------------------------------------------------|
--10-10-10----10----10-10----10----10-10-10-10------|
--10-10-10----10----10-10----10----10-10-10-10------|
--10-10-10----10----10-10----10----10-10-10-10------|


----------------------------------------------------|
----------------------------------------------------|
--------4--4--2--2--0--0--------------------0--0----|
--2--2--------------------4--4--2--2--4--4----------|
----------------------------------------------------|
----------------------------------------------------|


----------------------------------------------------|
----------------------------------------------------|
----------------------------------------------------|
--10-------10-------10----10------------------------|
--10-------10-------10----10------------------------|
--10-------10-------10----10------------------------|


----------------------------------------------------|
----------------------------------------------------|
----------------------------------------------------|
--2--------2--------2-----0-------------------------|
--2--------2--------2-----0-------------------------|
--2--------2--------2-----0-------------------------|


----------------------------------------------------|
----------------------------------------------------|
----------------------------------------------------|
--10-------10-------10----10------------------------|
--10-------10-------10----10------------------------|
--10-------10-------10----10------------------------|


----------------------------------------------------|
----------------------------------------------------|
----------------------------------------------------|
--2--------2--------2-----0-------------------------|
--2--------2--------2-----0-------------------------|
--2--------2--------2-----0-------------------------|


----------------------------------------------------|
----------------------------------------------------|
----------------------------------------------------|
--10-------10-------10----10------------------------|
--10-------10-------10----10------------------------|
--10-------10-------10----10------------------------|


----------------------------------------------------|
----------------------------------------------------|
----------------------------------------------------|
--2--------2--------2-----0-------------------------|
--2--------2--------2-----0-------------------------|
--2--------2--------2-----0-------------------------|


----------------------------------------------------|
----------------------------------------------------|
----------------------------------------------------|
--10-------10-------10----10------------------------|
--10-------10-------10----10------------------------|
--10-------10-------10----10------------------------|


----------------------------------------------------|
----------------------------------------------------|
--7--------7--------7-----7-------------------------|
--7--------7--------7-----7-------------------------|
--5--------5--------5-----5-------------------------|
----------------------------------------------------|


----------------------------------------------------|
----------------------------------------------------|
----------------------------------------------------|
----------------------------------------------------|
----------------------------------------------------|
--2--3--2-----2-----2--2-----2-----2--3--5--0-------|


----------------------------------------------------|
----------------------------------------------------|
----------------------------------------------------|
----------------------------------------------------|
--------------------------------------------3--3----|
--2--3--2-----2-----2--2-----2-----2--3--3----------|


----------------------------------------------------|
----------------------------------------------------|
----------------------------------------------------|
----------------------------------------------------|
--2--3--2-----2-----2--2-----2-----2--3--5--0-------|
--2--3--2-----2-----2--2-----2-----2--3--5--0-------|


----------------------------------------------------|
----------------------------------------------------|
----------------------------------------------------|
----------------------------------------------------|
----------------------------------------------------|
--3--3--3--3--3--3--3--0-----0-----0--3--3--3--3----|


-------------------------------------------------------|----||
-------------------------------------------------------|----||
-------------------------------------------------------|----||
-------------------------------------------------------|----||
--2-----2----------------------------------------------|----||
--2-----2----------------------------------------------|----||




GUITAR TWO



B |----------------------------------------------------|
F#|----------------------------------------------------|
D |----------------------------------------------------|
A |----------------------------------------------------|
E |----------------------------------------------------|
A |--2M-2M-2M-2-----2-----2M-2M-2-----2-----2M-2M-2M---|


----------------------------------------------------|
----------------------------------------------------|
----------------------------------------------------|
-----------2-----2----------------------------------|
----------------------------------------------------|
--2M-2M-2M-------------3--2--0-----0----------------|


----------------------------------------------------|
----------------------------------------------------|
----------------------------------------------------|
-----------------------5----------------------------|
----------------------------------------------------|
--2--3--2-----2-----2M----2-----2-----3--2--0--2L---|


----------------------------------------------------|
----------------------------------------------------|
----------------------------------------------------|
-----------------------5----------------------------|
----------------------------------------------------|
--2--3--2-----2-----2M----2-----2-----5--3--2--3L---|


----------------------------------------------------|
----------------------------------------------------|
----------------------------------------------------|
-----------------------5----------------------------|
----------------------------------------------------|
--3--5--2-----2-----2M----2-----2-----3--2--0--2L---|


----------------------------------------------------|
----------------------------------------------------|
----------------------------------------------------|
----------------------------------------------------|
----------------------------------------------------|
--2--2--2-----2-----2--2--2--0--------2--3----------|


----------------------------------------------------|
----------------------------------------------------|
----------------------------------------------------|
-----------------------5----------------------------|
--2--3--2-----2-----2M----2-----2-----3--2--0--2L---|
--2--3--2-----2-----2M----2-----2-----3--2--0--2L---|


----------------------------------------------------|
----------------------------------------------------|
----------------------------------------------------|
-----------------------5----------------------------|
--2--3--2-----2-----2M----2-----2-----5--3--2--3L---|
--2--3--2-----2-----2M----2-----2-----5--3--2--3L---|


----------------------------------------------------|
----------------------------------------------------|
----------------------------------------------------|
-----------------------5----------------------------|
--3--5--2-----------2M----2-----2-----3--2--0--2L---|
--3--5--2-----2~----2M----2-----2-----3--2--0--2L---|


----------------------------------------------------|
----------------------------------------------------|
----------------------------------------------------|
----------------------------------------------------|
--2--2--2-----2-----2--2--2--0--------2--3----------|
--2--2--2-----2-----2--2--2--0--------2--3----------|


----------------------------------------------------|
----------------------------------------------------|
----------------------------------------------------|
----------------------------------------------------|
----------------------------------------------------|
--2M-2M-2M-2-----2-----2M-2M-2-----2-----2M-2M-2M---|


----------------------------------------------------|
----------------------------------------------------|
----------------------------------------------------|
----------------------------------------------------|
----------------------------------------------------|
--2--2M-2M-2-----2-----3--2--0-----0-----0M-3M-3M---|


----------------------------------------------------|
----------------------------------------------------|
----------------------------------------------------|
----------------------------------------------------|
----------------------------------------------------|
--2M-2M-2M-2-----2-----2M-2M-2-----2-----2M-2M-2M---|


----------------------------------------------------|
----------------------------------------------------|
----------------------------------------------------|
----------------------------------------------------|
----------------------------------------------------|
--2--2M-2M-2-----2-----3--2--0-----0-----0M-3M-3M---|


----------------------------------------------------|
----------------------------------------------------|
----------------------------------------------------|
-----------------------5----------------------------|
--2M-3M-2M----2M----2M----2M----2M----3M-2M-0M-2L---|
--2M-3M-2M----2M----2M----2M----2M----3M-2M-0M-2L---|


----------------------------------------------------|
----------------------------------------------------|
----------------------------------------------------|
-----------------------5----------------------------|
--2M-3M-2M----2M----2M----2M----2M----5M-3M-2M-3L---|
--2M-3M-2M----2M----2M----2M----2M----5M-3M-2M-3L---|


----------------------------------------------------|
----------------------------------------------------|
----------------------------------------------------|
-----------------------5----------------------------|
--3M-5M-2M----2M----2M----2M----2M----3M-2M-0M-2L---|
--3M-5M-2M----2M----2M----2M----2M----3M-2M-0M-2L---|


----------------------------------------------------|
----------------------------------------------------|
----------------------------------------------------|
----------------------------------------------------|
--2M-3M-2M----2M----2M-2M-0M-0M----0M-3M-3M----3M---|
--2M-3M-2M----2M----2M-2M-0M-0M----0M-3M-3M----3M---|


----------------------------------------------------|
----------------------------------------------------|
----------------------------------------------------|
----------------------------------------------------|
----------------------------------------------------|
--2M-2M-2M-2-----2-----2M-2M-2-----2-----2M-2M-2M---|


----------------------------------------------------|
----------------------------------------------------|
----------------------------------------------------|
-----------2-----2----------------------------------|
----------------------------------------------------|
--2--2M-2M-------------3--2--0-----0----------------|


----------------------------------------------------|
----------------------------------------------------|
----------------------------------------------------|
--10-10-10----10----10-10----10----10-10-10-10------|
--10-10-10----10----10-10----10----10-10-10-10------|
--10-10-10----10----10-10----10----10-10-10-10------|


----------------------------------------------------|
----------------------------------------------------|
----------------------------------------------------|
--2--2--2-----2-----2--0-----0-----0--0--0--0-------|
--2--2--2-----2-----2--0-----0-----0--0--0--0-------|
--2--2--2-----2-----2--0-----0-----0--0--0--0-------|


----------------------------------------------------|
----------------------------------------------------|
----------------------------------------------------|
--10-10-10----10----10-10----10----10-10-10-10------|
--10-10-10----10----10-10----10----10-10-10-10------|
--10-10-10----10----10-10----10----10-10-10-10------|


----------------------------------------------------|
----------------------------------------------------|
----------------------------------------------------|
--2--2--2-----2-----2--0-----0-----0--0--0--0-------|
--2--2--2-----2-----2--0-----0-----0--0--0--0-------|
--2--2--2-----2-----2--0-----0-----0--0--0--0-------|


----------------------------------------------------|
----------------------------------------------------|
----------------------------------------------------|
--10-10-10----10----10-10----10----10-10-10-10------|
--10-10-10----10----10-10----10----10-10-10-10------|
--10-10-10----10----10-10----10----10-10-10-10------|


----------------------------------------------------|
----------------------------------------------------|
----------------------------------------------------|
--2--2--2-----2-----2--0-----0-----0--0--0--0-------|
--2--2--2-----2-----2--0-----0-----0--0--0--0-------|
--2--2--2-----2-----2--0-----0-----0--0--0--0-------|


----------------------------------------------------|
----------------------------------------------------|
----------------------------------------------------|
--10-10-10----10----10-10----10----10-10-10-10------|
--10-10-10----10----10-10----10----10-10-10-10------|
--10-10-10----10----10-10----10----10-10-10-10------|


----------------------------|
----------------------------|
--7-----------7-------------|
--7-----------7-------------|
--5-----------5-------------|
----------------------------|


----------------------------------------------------|
----------------------------------------------------|
----------------------------------------------------|
-----------------------5----------------------------|
----------------------------------------------------|
--2--3--2-----2-----2M----2-----2-----3--2--0--2L---|


----------------------------------------------------|
----------------------------------------------------|
----------------------------------------------------|
-----------------------5----------------------------|
----------------------------------------------------|
--2--3--2-----2-----2M----2-----2-----5--3--2--3L---|


----------------------------------------------------|
----------------------------------------------------|
----------------------------------------------------|
-----------------------5----------------------------|
----------------------------------------------------|
--3--5--2-----2-----2M----2-----2-----3--2--0--2L---|


----------------------------------------------------|
----------------------------------------------------|
----------------------------------------------------|
----------------------------------------------------|
----------------------------------------------------|
--2--2--2-----2-----2--2--2--0--------2--3----------|


----------------------------------------------------|
----------------------------------------------------|
----------------------------------------------------|
----------------------------------------------------|
----------------------------------------------------|
--2M-2M-2M-2-----2-----2M-2M-2-----2-----2M-2M-2M---|


----------------------------------------------------|
----------------------------------------------------|
----------------------------------------------------|
----------------------------------------------------|
----------------------------------------------------|
--2--2M-2M-2-----2-----3--2--0-----0-----0M-3M-3M---|


----------------------------------------------------|
----------------------------------------------------|
----------------------------------------------------|
----------------------------------------------------|
----------------------------------------------------|
--2M-2M-2M-2-----2-----2M-2M-2-----2-----2M-2M-2M---|


----------------------------------------------------|
----------------------------------------------------|
----------------------------------------------------|
----------------------------------------------------|
----------------------------------------------------|
--2--2M-2M-2-----2-----3--2--0-----0-----0M-3M-3M---|


----------------------------------------------------|
----------------------------------------------------|
----------------------------------------------------|
-----------------------5----------------------------|
--2M-3M-2M----2M----2M----2M----2M----3M-2M-0M-2L---|
--2M-3M-2M----2M----2M----2M----2M----3M-2M-0M-2L---|


----------------------------------------------------|
----------------------------------------------------|
----------------------------------------------------|
-----------------------5----------------------------|
--2M-3M-2M----2M----2M----2M----2M----5M-3M-2M-3L---|
--2M-3M-2M----2M----2M----2M----2M----5M-3M-2M-3L---|


----------------------------------------------------|
----------------------------------------------------|
----------------------------------------------------|
-----------------------5----------------------------|
--3M-5M-2M----2M----2M----2M----2M----3M-2M-0M-2L---|
--3M-5M-2M----2M----2M----2M----2M----3M-2M-0M-2L---|


----------------------------------------------------|
----------------------------------------------------|
----------------------------------------------------|
----------------------------------------------------|
--2M-3M-2M----2M----2M-2M-0M-0M----0M-3M-3M----3M---|
--2M-3M-2M----2M----2M-2M-0M-0M----0M-3M-3M----3M---|


----------------------------------------------------|
----------------------------------------------------|
----------------------------------------------------|
----------------------------------------------------|
----------------------------------------------------|
--2M-2M-2M-2-----2-----2M-2M-2-----2-----2M-2M-2M---|


----------------------------------------------------|
----------------------------------------------------|
----------------------------------------------------|
----------------------------------------------------|
----------------------------------------------------|
--2--2M-2M-2-----2-----3--2--0-----0----------------|


----------------------------------------------------|
----------------------------------------------------|
----------------------------------------------------|
--10-10-10----10----10-10----10----10-10-10-10------|
--10-10-10----10----10-10----10----10-10-10-10------|
--10-10-10----10----10-10----10----10-10-10-10------|


----------------------------------------------------|
----------------------------------------------------|
----------------------------------------------------|
--2--2--2-----2-----2--0-----0-----0--0--0--0-------|
--2--2--2-----2-----2--0-----0-----0--0--0--0-------|
--2--2--2-----2-----2--0-----0-----0--0--0--0-------|


----------------------------------------------------|
----------------------------------------------------|
----------------------------------------------------|
--10-10-10----10----10-10----10----10-10-10-10------|
--10-10-10----10----10-10----10----10-10-10-10------|
--10-10-10----10----10-10----10----10-10-10-10------|


----------------------------------------------------|
----------------------------------------------------|
----------------------------------------------------|
--2--2--2-----2-----2--0-----0-----0--0--0--0-------|
--2--2--2-----2-----2--0-----0-----0--0--0--0-------|
--2--2--2-----2-----2--0-----0-----0--0--0--0-------|


----------------------------------------------------|
----------------------------------------------------|
----------------------------------------------------|
--10-10-10----10----10-10----10----10-10-10-10------|
--10-10-10----10----10-10----10----10-10-10-10------|
--10-10-10----10----10-10----10----10-10-10-10------|


----------------------------------------------------|
----------------------------------------------------|
----------------------------------------------------|
--2--2--2-----2-----2--0-----0-----0--0--0--0-------|
--2--2--2-----2-----2--0-----0-----0--0--0--0-------|
--2--2--2-----2-----2--0-----0-----0--0--0--0-------|


----------------------------------------------------|
----------------------------------------------------|
----------------------------------------------------|
--10-10-10----10----10-10----10----10-10-10-10------|
--10-10-10----10----10-10----10----10-10-10-10------|
--10-10-10----10----10-10----10----10-10-10-10------|


----------------------------|
----------------------------|
--7-----------7-------------|
--7-----------7-------------|
--5-----------5-------------|
----------------------------|


----------------------------------------------------|
----------------------------------------------------|
----------------------------------------------------|
----------------------------------------------------|
----------------------------------------------------|
--3--2-----2-----2-----2M-2M-2-----2-----2M-2M-2M---|


----------------------------------------------------|
----------------------------------------------------|
----------------------------------------------------|
----------------------------------------------------|
----------------------------------------------------|
--2--2M-2M-2-----2-----2--2M-2-----2-----2M-2M-2M---|


----------------------------------------------------|
----------------------------------------------------|
----------------------------------------------------|
----------------------------------------------------|
----------------------------------------------------|
--3--2-----2-----2-----2M-2M-2-----2-----2M-2M-2M---|


----------------------------------------------------|
----------------------------------------------------|
----------------------------------------------------|
----------------------------------------------------|
----------------------------------------------------|
--2--2M-2M-2-----2-----2--2M-2-----2-----2M-2M-2M---|


----------------------------------------------------|
----------------------------------------------------|
----------------------------------------------------|
--------------3-----------------------3-------------|
----------------------------------------------------|
--3--2-----2-----2-----2--3--2-----2-----2-----2----|


----------------------------------------------------|
----------------------------------------------------|
----------------------------------------------------|
--------------3-------------------------------------|
----------------------------------------------------|
--3--2-----2-----2-----2--3--3-----3--0--0-----0----|


----------------------------------------------------|
----------------------------------------------------|
----------------------------------------------------|
--------------3-----------------------3-------------|
----------------------------------------------------|
--3--2-----2-----2-----2--3--2-----2-----2-----2----|


----------------------------------------------------|
----------------------------------------------------|
----------------------------------------------------|
--------------3-------------------------------------|
----------------------------------------------------|
--3--2-----2-----2-----2----------------------------|


----------------------------------------------------|
----------------------------------------------------|
----------------------------------------------------|
--------------3-----------------------3-------------|
----------------------------------------------------|
--3--2-----2-----2-----2--3--2-----2-----2-----2----|


----------------------------------------------------|
----------------------------------------------------|
----------------------------------------------------|
--------------3-------------------------------------|
----------------------------------------------------|
--3--2-----2-----2-----2--3--3-----3--0--0-----0----|


----------------------------------------------------|
----------------------------------------------------|
----------------------------------------------------|
--------------3-----------------------3-------------|
----------------------------------------------------|
--3--2-----2-----2-----2--3--2-----2-----2-----2----|


----------------------------------------------------|
----------------------------------------------------|
----------------------------------------------------|
--------------3-------------------------------------|
----------------------------------------------------|
--3--2-----2-----2-----2--3--3-----3--0--0-----0----|


----------------------------------------------------|
----------------------------------------------------|
----------------------------------------------------|
--------------3-----------------------3-------------|
----------------------------------------------------|
--3--2-----2-----2-----2--3--2-----2-----2-----2----|


----------------------------------------------------|
----------------------------------------------------|
----------------------------------------------------|
--------------3-------------------------------------|
----------------------------------------------------|
--3--2-----2-----2-----2--3--3-----3--0--0-----0----|


----------------------------------------------------|
----------------------------------------------------|
----------------------------------------------------|
--------------3-----------------------3-------------|
----------------------------------------------------|
--3--2-----2-----2-----2--3--2-----2-----2-----2----|


----------------------------------------------------|
----------------------------------------------------|
----------------------------------------------------|
--------------3-------------------------------------|
----------------------------------------------------|
--3--2-----2-----2-----2--3--3-----3--0--0-----0----|


----------------------------|
----------------------------|
----------------------------|
--------3-----------3-------|
--3--2-----2--3--2-----2----|
--3--2-----2--3--2-----2----|


----------------------------------------------------|
----------------------------------------------------|
----------------------------------------------------|
--------------3-------------------------------------|
--3-----2-----------2-----3--3--3--3--0--0--0--0----|
--3-----2-----------2-----3--3--3--3--0--0--0--0----|


----------------------------|
----------------------------|
----------------------------|
--------3-----------3-------|
--3--2-----2--3--2-----2----|
--3--2-----2--3--2-----2----|


----------------------------------------------------|
----------------------------------------------------|
----------------------------------------------------|
--------------3-------------------------------------|
--3-----2-----------2-----3--3-----3----------------|
--3-----2-----------2-----3--3-----3--3--2--0--2----|


----------------------------|
----------------------------|
----------------------------|
--------3-----------3-------|
--3--2-----2--3--2-----2----|
--3--2-----2--3--2-----2----|


----------------------------------------------------|
----------------------------------------------------|
----------------------------------------------------|
--------------3-------------------------------------|
--3-----2-----------2-----3--3-----3----------------|
--3-----2-----------2-----3--3-----3--3--2--0--2----|


----------------------------------------------------|
----------------------------------------------------|
----------------------------------------------------|
----------------------------------------------------|
--2--3--2-----3-----------2--3--2-----3-------------|
--2--3--2-----------3-----2--3--2-----------3-------|


----------------------------------------------------|----|----|----|----|
----------------------------------------------------|----|----|----|----|
----------------------------------------------------|----|----|----|----|
----------------------------------------------------|----|----|----|----|
--2--3--2-----3-----------3--3-----3--0--0-----0----|----|----|----|----|
--2--3--2-----------3-----3--3-----3--0--0-----0----|----|----|----|----|


----------------------------------------------------|
----------------------------------------------------|
----------------------------------------------------|
--10-10-10----10----10-10----10----10-10-10-10------|
--10-10-10----10----10-10----10----10-10-10-10------|
--10-10-10----10----10-10----10----10-10-10-10------|


----------------------------------------------------|
----------------------------------------------------|
----------------------------------------------------|
--2--2--2-----2-----2--0-----0-----0--0--0--0-------|
--2--2--2-----2-----2--0-----0-----0--0--0--0-------|
--2--2--2-----2-----2--0-----0-----0--0--0--0-------|


----------------------------------------------------|
----------------------------------------------------|
----------------------------------------------------|
--10-10-10----10----10-10----10----10-10-10-10------|
--10-10-10----10----10-10----10----10-10-10-10------|
--10-10-10----10----10-10----10----10-10-10-10------|


----------------------------------------------------|
----------------------------------------------------|
----------------------------------------------------|
--2--2--2-----2-----2--0-----0-----0--0--0--0-------|
--2--2--2-----2-----2--0-----0-----0--0--0--0-------|
--2--2--2-----2-----2--0-----0-----0--0--0--0-------|


----------------------------------------------------|
----------------------------------------------------|
----------------------------------------------------|
--10-10-10----10----10-10----10----10-10-10-10------|
--10-10-10----10----10-10----10----10-10-10-10------|
--10-10-10----10----10-10----10----10-10-10-10------|


----------------------------------------------------|
----------------------------------------------------|
----------------------------------------------------|
--2--2--2-----2-----2--0-----0-----0--0--0--0-------|
--2--2--2-----2-----2--0-----0-----0--0--0--0-------|
--2--2--2-----2-----2--0-----0-----0--0--0--0-------|


----------------------------------------------------|
----------------------------------------------------|
----------------------------------------------------|
--10-10-10----10----10-10----10----10-10-10-10------|
--10-10-10----10----10-10----10----10-10-10-10------|
--10-10-10----10----10-10----10----10-10-10-10------|


----------------------------------------------------|
----------------------------------------------------|
--------7--7--5--5--4--4--------------------4--4----|
--5--5--------------------7--7--5--5--7--7----------|
----------------------------------------------------|
----------------------------------------------------|


----------------------------------------------------|
----------------------------------------------------|
----------------------------------------------------|
--10-------10-------10----10------------------------|
--10-------10-------10----10------------------------|
--10-------10-------10----10------------------------|


----------------------------------------------------|
----------------------------------------------------|
----------------------------------------------------|
--2--------2--------2-----0-------------------------|
--2--------2--------2-----0-------------------------|
--2--------2--------2-----0-------------------------|


----------------------------------------------------|
----------------------------------------------------|
----------------------------------------------------|
--10-------10-------10----10------------------------|
--10-------10-------10----10------------------------|
--10-------10-------10----10------------------------|


----------------------------------------------------|
----------------------------------------------------|
----------------------------------------------------|
--2--------2--------2-----0-------------------------|
--2--------2--------2-----0-------------------------|
--2--------2--------2-----0-------------------------|


----------------------------------------------------|
----------------------------------------------------|
----------------------------------------------------|
--10-------10-------10----10------------------------|
--10-------10-------10----10------------------------|
--10-------10-------10----10------------------------|


----------------------------------------------------|
----------------------------------------------------|
----------------------------------------------------|
--2--------2--------2-----0-------------------------|
--2--------2--------2-----0-------------------------|
--2--------2--------2-----0-------------------------|


----------------------------------------------------|
----------------------------------------------------|
----------------------------------------------------|
--10-------10-------10----10------------------------|
--10-------10-------10----10------------------------|
--10-------10-------10----10------------------------|


----------------------------------------------------|
----------------------------------------------------|
--7--------7--------7-----7-------------------------|
--7--------7--------7-----7-------------------------|
--5--------5--------5-----5-------------------------|
----------------------------------------------------|


----------------------------------------------------|
----------------------------------------------------|
----------------------------------------------------|
----------------------------------------------------|
----------------------------------------------------|
--2--3--2-----2-----2--2-----2-----2--3--5--0-------|


----------------------------------------------------|
----------------------------------------------------|
----------------------------------------------------|
----------------------------------------------------|
--------------------------------------------3--3----|
--2--3--2-----2-----2--2-----2-----2--3--3----------|


----------------------------------------------------|
----------------------------------------------------|
----------------------------------------------------|
----------------------------------------------------|
--2--3--2-----2-----2--2-----2-----2--3--5--0-------|
--2--3--2-----2-----2--2-----2-----2--3--5--0-------|


----------------------------------------------------|
----------------------------------------------------|
----------------------------------------------------|
----------------------------------------------------|
----------------------------------------------------|
--3--3--3--3--3--3--3--0-----0-----0--3--3--3--3----|


-------------------------------------------------------|----||
-------------------------------------------------------|----||
-------------------------------------------------------|----||
-------------------------------------------------------|----||
--2-----2----------------------------------------------|----||
--2-----2----------------------------------------------|----||



BASS GUITAR




D |-------|-------|----------------------------------------------------|
A |-------|-------|----------------------------------------------------|
E |-------|-------|----------------------------------------------------|
A |-------|-------|--2--3--2-----2-----------2-----2-----3--2--0--2L---|


----------------------------------------------------|
----------------------------------------------------|
----------------------------------------------------|
--2--3--2-----2-----------2-----2-----5--3--2--3L---|


----------------------------------------------------|
----------------------------------------------------|
----------------------------------------------------|
--3--5--2-----2-----------2-----2-----3--2--0--2L---|


----------------------------------------------------|
----------------------------------------------------|
----------------------------------------------------|
--2--2--2-----2-----2--2--2--0--------0--3----------|


----------------------------------------------------|
----------------------------------------------------|
----------------------------------------------------|
--2--3--2-----2-----------2-----2-----3--2--0--2L---|


----------------------------------------------------|
----------------------------------------------------|
----------------------------------------------------|
--2--3--2-----2-----------2-----2-----5--3--2--3L---|


----------------------------------------------------|
----------------------------------------------------|
----------------------------------------------------|
--3--5--2-----2-----------2-----2-----3--2--0--2L---|


----------------------------------------------------|-------|-------|-------|
----------------------------------------------------|-------|-------|-------|
----------------------------------------------------|-------|-------|-------|
--2--2--2-----2-----2--2--2--0--------0--3----------|-------|-------|-------|


-------|----------------------------------------------------|
-------|----------------------------------------------------|
-------|----------------------------------------------------|
-------|--2--3--2-----2-----------2-----2-----3--2--0--2L---|


----------------------------------------------------|
----------------------------------------------------|
----------------------------------------------------|
--2--3--2-----2-----------2-----2-----5--3--2--3L---|


----------------------------------------------------|
----------------------------------------------------|
----------------------------------------------------|
--3--5--2-----2-----------2-----2-----3--2--0--2L---|


----------------------------------------------------|----|----|
----------------------------------------------------|----|----|
----------------------------------------------------|----|----|
--2--3--2-----2-----2--2--0--0-----0--2--2-----2----|----|----|


----------------------------------------------------|
----------------------------------------------------|
----------------------------------------------------|
--10-10-10----10----10-10----10----10-10-10-10-10---|


----------------------------------------------------|
----------------------------------------------------|
----------------------------------------------------|
--2--2--2-----2-----2--0-----0-----0--0--0--0--0----|


----------------------------------------------------|
----------------------------------------------------|
----------------------------------------------------|
--10-10-10----10----10-10----10----10-10-10-10-10---|


----------------------------------------------------|
----------------------------------------------------|
----------------------------------------------------|
--2--2--2-----2-----2--0-----0-----0--0--0--0--0----|


----------------------------------------------------|
----------------------------------------------------|
----------------------------------------------------|
--10-10-10----10----10-10----10----10-10-10-10-10---|


----------------------------------------------------|
----------------------------------------------------|
----------------------------------------------------|
--2--2--2-----2-----2--0-----0-----0--0--0--0--0----|


----------------------------------------------------|
----------------------------------------------------|
----------------------------------------------------|
--10-10-10----10----10-10----10----10-10-10-10-10---|


----------------------------|
----------------------------|
--5-----------5-------------|
----------------------------|


----------------------------------------------------|
----------------------------------------------------|
----------------------------------------------------|
--2--3--2-----2-----------2-----2-----3--2--0--2L---|


----------------------------------------------------|
----------------------------------------------------|
----------------------------------------------------|
--2--3--2-----2-----------2-----2-----5--3--2--3L---|


----------------------------------------------------|
----------------------------------------------------|
----------------------------------------------------|
--3--5--2-----2-----------2-----2-----3--2--0--2L---|


----------------------------------------------------|-------|-------|-------|
----------------------------------------------------|-------|-------|-------|
----------------------------------------------------|-------|-------|-------|
--2--2--2-----2-----2--2--2--0--------0--3----------|-------|-------|-------|


-------|----------------------------------------------------|
-------|----------------------------------------------------|
-------|----------------------------------------------------|
-------|--2--3--2-----2-----------2-----2-----3--2--0--2L---|


----------------------------------------------------|
----------------------------------------------------|
----------------------------------------------------|
--2--3--2-----2-----------2-----2-----5--3--2--3L---|


----------------------------------------------------|
----------------------------------------------------|
----------------------------------------------------|
--3--5--2-----2-----------2-----2-----3--2--0--2L---|


----------------------------------------------------|-------|-------|
----------------------------------------------------|-------|-------|
----------------------------------------------------|-------|-------|
--2--3--2-----2-----2--2--0--0-----0--2--2-----2----|-------|-------|


----------------------------------------------------|
----------------------------------------------------|
----------------------------------------------------|
--10-10-10----10----10-10----10----10-10-10-10-10---|


----------------------------------------------------|
----------------------------------------------------|
----------------------------------------------------|
--2--2--2-----2-----2--0-----0-----0--0--0--0--0----|


----------------------------------------------------|
----------------------------------------------------|
----------------------------------------------------|
--10-10-10----10----10-10----10----10-10-10-10-10---|


----------------------------------------------------|
----------------------------------------------------|
----------------------------------------------------|
--2--2--2-----2-----2--0-----0-----0--0--0--0--0----|


----------------------------------------------------|
----------------------------------------------------|
----------------------------------------------------|
--10-10-10----10----10-10----10----10-10-10-10-10---|


----------------------------------------------------|
----------------------------------------------------|
----------------------------------------------------|
--2--2--2-----2-----2--0-----0-----0--0--0--0--0----|


----------------------------------------------------|
----------------------------------------------------|
----------------------------------------------------|
--10-10-10----10----10-10----10----10-10-10-10-10---|


----------------------------|
----------------------------|
--5-----------5-------------|
----------------------------|


----------------------------------------------------|-------|
----------------------------------------------------|-------|
----------------------------------------------------|-------|
--3--2-----2----------------------------------------|-------|


----------------------------------------------------|-------|
----------------------------------------------------|-------|
----------------------------------------------------|-------|
--3--2-----2----------------------------------------|-------|


----------------------------------------------------|
----------------------------------------------------|
----------------------------------------------------|
--3--2-----2----------------------------------------|


----------------------------------------------------|
----------------------------------------------------|
----------------------------------------------------|
--3--2-----2----------------------------------------|


----------------------------------------------------|
----------------------------------------------------|
----------------------------------------------------|
--3--2-----2----------------------------------------|


----------------------------------------------------|
--------------3-------------------------------------|
----------------------------------------------------|
--3--2-----2-----2-----2----------------------------|


----------------------------------------------------|
--------------3-----------------------3-------------|
----------------------------------------------------|
--3--2-----2-----2-----2--3--2-----2-----2-----2----|


----------------------------------------------------|
--------------3-------------------------------------|
----------------------------------------------------|
--3--2-----2-----2-----2--3--3-----3--0--0-----0----|


----------------------------------------------------|
--------------3-----------------------3-------------|
----------------------------------------------------|
--3--2-----2-----2-----2--3--2-----2-----2-----2----|


----------------------------------------------------|
--------------3-------------------------------------|
----------------------------------------------------|
--3--2-----2-----2-----2--3--3-----3--0--0-----0----|


----------------------------------------------------|
--------------3-----------------------3-------------|
----------------------------------------------------|
--3--2-----2-----2-----2--3--2-----2-----2-----2----|


----------------------------------------------------|
--------------3-------------------------------------|
----------------------------------------------------|
--3--2-----2-----2-----2--3--3-----3--0--0-----0----|


----------------------------------------------------|
--------------3-----------------------3-------------|
----------------------------------------------------|
--3--2-----2-----2-----2--3--2-----2-----2-----2----|


----------------------------------------------------|
--------------3-------------------------------------|
----------------------------------------------------|
--3--2-----2-----2-----2--3--3-----3--0--0-----0----|


----------------------------|
--------3-----------3-------|
----------------------------|
--3--2-----2--3--2-----2----|


----------------------------------------------------|
--------------3-------------------------------------|
----------------------------------------------------|
--3-----2-----------2-----3--3--3--3--0--0--0--0----|


----------------------------|
--------3-----------3-------|
----------------------------|
--3--2-----2--3--2-----2----|


----------------------------------------------------|
--------------3-------------------------------------|
----------------------------------------------------|
--3-----2-----------2-----3--3-----3--3--2--0--2----|


----------------------------|
--------3-----------3-------|
----------------------------|
--3--2-----2--3--2-----2----|


----------------------------------------------------|
--------------3-------------------------------------|
----------------------------------------------------|
--3-----2-----------2-----3--3-----3--3--2--0--2----|


----------------------------------------------------|
----------------------------------------------------|
----------------------------------------------------|
--3--2--3-----------------3--2--3-------------------|


----------------------------------------------------|----|----|----|----|
----------------------------------------------------|----|----|----|----|
----------------------------------------------------|----|----|----|----|
--3--2--3-----------------3--3-----3--0--0-----0----|----|----|----|----|


----------------------------------------------------|
----------------------------------------------------|
----------------------------------------------------|
--10-10-10----10----10-10----10----10-10-10-10-10---|


----------------------------------------------------|
----------------------------------------------------|
----------------------------------------------------|
--2--2--2-----2-----2--0-----0-----0--0--0--0--0----|


----------------------------------------------------|
----------------------------------------------------|
----------------------------------------------------|
--10-10-10----10----10-10----10----10-10-10-10-10---|


----------------------------------------------------|
----------------------------------------------------|
----------------------------------------------------|
--2--2--2-----2-----2--0-----0-----0--0--0--0--0----|


----------------------------------------------------|
----------------------------------------------------|
----------------------------------------------------|
--10-10-10----10----10-10----10----10-10-10-10-10---|


----------------------------------------------------|
----------------------------------------------------|
----------------------------------------------------|
--2--2--2-----2-----2--0-----0-----0--0--0--0--0----|


----------------------------------------------------|
----------------------------------------------------|
----------------------------------------------------|
--10-10-10----10----10-10----10----10-10-10-10-10---|


----------------------------|
----------------------------|
--5-----------5-------------|
----------------------------|


----------------------------------------------------|
----------------------------------------------------|
----------------------------------------------------|
--10-------10-------10----10------------------------|


----------------------------------------------------|
----------------------------------------------------|
----------------------------------------------------|
--2--------2--------2-----0-------------------------|


----------------------------------------------------|
----------------------------------------------------|
----------------------------------------------------|
--10-------10-------10----10------------------------|


----------------------------------------------------|
----------------------------------------------------|
----------------------------------------------------|
--2--------2--------2-----0-------------------------|


----------------------------------------------------|
----------------------------------------------------|
----------------------------------------------------|
--10-------10-------10----10------------------------|


----------------------------------------------------|
----------------------------------------------------|
----------------------------------------------------|
--2--------2--------2-----0-------------------------|


----------------------------------------------------|
----------------------------------------------------|
----------------------------------------------------|
--10-------10-------10----10------------------------|


----------------------------------------------------|
----------------------------------------------------|
--5--------5--------5-----5-------------------------|
----------------------------------------------------|


----------------------------------------------------|
----------------------------------------------------|
----------------------------------------------------|
--2--3--2-----2-----2--2-----2-----2--3--5--0-------|


----------------------------------------------------|
----------------------------------------------------|
--------------------------------------------5--5----|
--2--3--2-----2-----2--2-----2-----2--3--3----------|


----------------------------------------------------|
----------------------------------------------------|
----------------------------------------------------|
--2--3--2-----2-----2--2-----2-----2--3--5--0-------|


----------------------------------------------------|
----------------------------------------------------|
----------------------------------------------------|
--3--3--3--3--3--3--3--0-----0-----0--3--3--3--3----|


----------------------------|----||
----------------------------|----||
----------------------------|----||
--2--2----------------------|----||

Добавлено: 16.10.2014
Другие материалы по этой песне:

Страница создана 27.09.2014
http://primanota.ru/motionless-in-white/reincarnate-chords.htm
Привет, Гость.
Предлагаем пройти революционный курс по гитаре.
Подарок от PrimaNota.Ru, забирай!