PrimaNota.ru - самый крупный в мире бесплатный архив песенных текстов, аккордов, табулатур и нот


Motionless In White - Dead As Fuck - таба, бас-таба, видео

Регистрация Запомнить меня
Войти через:  Facebook Google Twitter Vk Yandex Mail.ru

Motionless In White - Dead As Fuck - таба, бас-таба, видео

Печатать
Просмотров: 208
h - Hammer on.
* - Palm mute.

Intro.

0:09 - 0:21.

Play this twice.

B----------------------------------------------------|
F#---------------------------------------------------|
D----------------------------------------------------|
A--33-66-5555-0000-0-2-0-2h3-33-66-5555-1111---------|
E--33-66-5555-0000-0-2-0-2h3-33-66-5555-1111-0-0-0-0-|
A--33-66-5555-0000-0-2-0-2h3-33-66-5555-1111-0-0-0-0-|
                                             * * * *

-----------------------------------------------------------------------------------------------

Verse one.

0:36 - 0:42.

Play this twice.

B-----------------------|
F#----------------------|
D-----------------------|
A--2-22-22-22-0-2-0-2h3-|
E--2-22-22-22-0-2-0-2h3-|
A--2-22-22-22-0-2-0-2h3-|

-----------------------------------------------------------------------------------------------

Chorus.

0:56 - 1:22.

Play the first bar twice, then the second bar twice.

B----------------------------------------------------|
F#---------------------------------------------------|
D----------------------------------------------------|
A--33-66-5555-0000-0-2-0-2h3-33-66-5555-1111---------|
E--33-66-5555-0000-0-2-0-2h3-33-66-5555-1111-0-0-0-0-|
A--33-66-5555-0000-0-2-0-2h3-33-66-5555-1111-0-0-0-0-|
                                             * * * *

B---------------------------------------------|
F#--------------------------------------------|
D---------------------------------------------|
A--33-66-5555-0000-0-2-0-2h3-6~6~6~5~5~1~1~1~-|
E--33-66-5555-0000-0-2-0-2h3-6~6~6~5~5~1~1~1~-|
A--33-66-5555-0000-0-2-0-2h3-6~6~6~5~5~1~1~1~-|

-----------------------------------------------------------------------------------------------

Verse two.

1:36 - 1:40.

Play the first bar once, then the second bar once.

B-----------------------|------------|
F#----------------------|------------|
D-----------------------|------------|
A--2-22-22-22-0-2-0-2h3-|-2-22-22-22-|
E--2-22-22-22-0-2-0-2h3-|-2-22-22-22-|
A--2-22-22-22-0-2-0-2h3-|-2-22-22-22-|

-----------------------------------------------------------------------------------------------

Chorus.

1:42 - 1:54.

Play this twice.

B----------------------------------------------------|
F#---------------------------------------------------|
D----------------------------------------------------|
A--33-66-5555-0000-0-2-0-2h3-33-66-5555-1111---------|
E--33-66-5555-0000-0-2-0-2h3-33-66-5555-1111-0-0-0-0-|
A--33-66-5555-0000-0-2-0-2h3-33-66-5555-1111-0-0-0-0-|
                                             * * * *

-----------------------------------------------------------------------------------------------

Bridge.

2:08 - 2:20.

Play this twice.

B------------------------------------------------------------------|
F#-----------------------------------------------------------------|
D------------------------------------------------------------------|
A--0-0-0-0-0-0-0-0-2-2-2-2-2-2-2-2-3-3-3-3-3-3-3-3-3-3-3-3-3-3-3-3-|
E--0-0-0-0-0-0-0-0-2-2-2-2-2-2-2-2-3-3-3-3-3-3-3-3-3-3-3-3-3-3-3-3-|
A--0-0-0-0-0-0-0-0-2-2-2-2-2-2-2-2-3-3-3-3-3-3-3-3-3-3-3-3-3-3-3-3-|

-----------------------------------------------------------------------------------------------

Chorus.

2:27 - 2:52.

Play the first bar twice, then the second bar twice.

B----------------------------------------------------|
F#---------------------------------------------------|
D----------------------------------------------------|
A--33-66-5555-0000-0-2-0-2h3-33-66-5555-1111---------|
E--33-66-5555-0000-0-2-0-2h3-33-66-5555-1111-0-0-0-0-|
A--33-66-5555-0000-0-2-0-2h3-33-66-5555-1111-0-0-0-0-|
                                             * * * *

B---------------------------------------------|
F#--------------------------------------------|
D---------------------------------------------|
A--33-66-5555-0000-0-2-0-2h3-6~6~6~5~5~1~1~1~-|
E--33-66-5555-0000-0-2-0-2h3-6~6~6~5~5~1~1~1~-|
A--33-66-5555-0000-0-2-0-2h3-6~6~6~5~5~1~1~1~-|

-----------------------------------------------------------------------------------------------
Добавлено: 05.08.2014
Другие материалы по этой песне:
  • Аккорды и текст

Страница создана 05.08.2014
http://primanota.ru/motionless-in-white/dead-as-fuck-chords.htm
Привет, Гость.
Предлагаем пройти революционный курс по гитаре.
Подарок от PrimaNota.Ru, забирай!