PrimaNota.ru - самый крупный в мире бесплатный архив песенных текстов, аккордов, табулатур и нот


Mother Mother - Infinitesimal - текст песни, таба, бас-таба, видео

Регистрация Запомнить меня
Войти через:  Facebook Google Twitter Vk Yandex Mail.ru

Mother Mother - Infinitesimal - текст песни, таба, бас-таба, видео

Печатать
Просмотров: 202
-------------------------------------------------------------------------------
                             Infinitesimal - Mother Mother
-------------------------------------------------------------------------------
Tuning: Standard

Intro:
e|-------------------------------------------------------------------------------------|
B|-------------------------------------------------------------------------------------|
G|-------------------------------------------------------------------------------------|
D|-------------------------------------------------------------------------------------|
A|--11-11-11-11-11-11-11-11-9-9-9-9-9-9-9-9-11-11-11-11-11-11-11-11-11-9-9-9-9-9-9-9-9-|
E|--0--0--0--0--0--0--0--0--9-9-9-9-9-9-9-9-9--9--9--9--9--9--9--9--9--9-9-9-9-9-9-9-9-| X2
Verse 1:
e|-------------------------------------------------------------------------------------|
B|-------------------------------------------------------------------------------------|
G|-------------------------------------------------------------------------------------|
D|-------------------------------------6-6-6-6-6-6-6-6---------------------------------|
A|-2-2-2-2-2-2-2-2-4-4-4-4-4-4-4-4---2-4-4-4-4-4-4-4-4-4-4-4-4-4-4-4-4-----------------|
E|-0-0-0-0-0-0-0-0-2-2-2-2-2-2-2-2-4-------------------2-2-2-2-2-2-2-2-----------------|

e|-------------------------------------------------------------------------------------|
B|-------------------------------------------------------------------------------------|
G|-------------------------------------------------------------------------------------|
D|-------------------------------------------------------------------------------------|
A|--11-11-11-11-11-11-11-11-9-9-9-9-9-9-9-9-11-11-11-11-11-11-11-11-11-9-9-9-9-9-9-9-9-|
E|--0--0--0--0--0--0--0--0--9-9-9-9-9-9-9-9-9--9--9--9--9--9--9--9--9--9-9-9-9-9-9-9-9-| 
Chorus:
e|-------------------------------------------------------------------------------------|
B|-------------------------------------------------------------------------------------|
G|-------------------------------------------------------------------------------------|
D|-----------------5-5-5-5-5-5-5-5-6-6-6-6-6-6-6-6-2-2-2-2-2-2-2-2---------------------|
A|-2-2-2-2-2-2-2-2-3-3-3-3-3-3-3-3-4-4-4-4-4-4-4-4-0-0-0-0-0-0-0-0---------------------|
E|-0-0-0-0-0-0-0-0---------------------------------------------------------------------|X2
Interlude
e|----------------------9--------------------------------------------------------------|
B|---------------9--12-----12--9-------------------------------------------------------|
G|--------9--11-------------------11~--------------------------------------------------|
D|-9--11-------------------------------------------------------------------------------|
A|-------------------------------------------------------------------------------------|
E|-------------------------------------------------------------------------------------|

e|----------------------9--------------------------------------------------------------|
B|---------------9--12-----12--9-------------------------------------------------------|
G|--------9--11-------------------11--12-12-12-----------------------------------------|
D|-9--11-------------------------------------------------------------------------------|
A|-------------------------------------------------------------------------------------|
E|-------------------------------------------------------------------------------------|
Verse 2:
e|---------------------------------------------------------------------------------------------|
B|---------------------------------------------------------------------------------------------|
G|---------------------------------------------13-13-13-13-13-13-13-13-13----------------------|
D|-9-9-9-9-9-9-9-9-11-11-11-11-11-11-11-11---9-11-11-11-11-11-11-11-11-11-11-11-11-11-11-11-11-|
A|-7-7-7-7-7-7-7-7-9--9--9--9--9--9--9--9--11-----------------------------9--9--9--9--9--9--9--|
E|---------------------------------------------------------------------------------------------|

e|-------------------------------------------------------------------------------------|
B|-------------------------------------------------------------------------------------|
G|-------------------------------------------------------------------------------------|
D|-------------------4-4-4-4----------6-6-6-6-6-6-6-6-4-4-4-4-4-4-4-4------------------|
A|-11-11-11-11-------4-4-4-4--------2-4-4-4-4-4-4-4-4-4-4-4-4-4-4-4-4------------------|
E|-0--0--0--0---------------------4----------------------------------------------------|
Chorus:
e|-------------------------------------------------------------------------------------|
B|-------------------------------------------------------------------------------------|
G|-------------------------------------------------------------------------------------|
D|-----------------5-5-5-5-5-5-5-5-6-6-6-6-6-6-6-6-2-2-2-2-2-2-2-2---------------------|
A|-2-2-2-2-2-2-2-2-3-3-3-3-3-3-3-3-4-4-4-4-4-4-4-4-0-0-0-0-0-0-0-0---------------------|
E|-0-0-0-0-0-0-0-0---------------------------------------------------------------------|X2
Bridge:
e|---------------|
B|---------------|
G|---------------|
D|---------------|
A|-4-------2--4--|
E|---0--4--------| X32

e|-------------------------------------------------------------------------------------|
B|-14-14-14----12-12-12----14----14--12------14--9--------14-14-14-14-12---------------|
G|-13-13-13----13-13-13----13----13--13------13--9--------13-13-13-13-13---------------|
D|-------------------------------------------------------------------------------------|
A|-------------------------------------------------------------------------------------|
E|-------------------------------------------------------------------------------------|

e|-----------------------------------------------------------------------------------------------|
B|--------------------------------------------12-14-14-14-14-14-14-14-14-14-14-14-14-14-14-14-14-|
G|-----------------------------------------13----13-13-13-13-13-13-13-13-13-13-13-13-13-13-13-13-|
D|-----------------------------------------------------------------------------------------------|
A|-11-11-11-11-11-11-11-11-9-9-9-9-9-9-9-9-------------------------------------------------------|
E|-0--0--0--0--0--0--0--0--9-9-9-9-9-9-9-9-------------------------------------------------------|

e|---------------------------------------------------------------|
B|---------------------------------------------------------------|
G|---------------------------------------------------------------|
D|---------------------------------------------------------------|
A|---------------------------------------------------------------|
E|-12-12--11---10---9----8---------------------------------------|
Chorus:
e|-------------------------------------------------------------------------------------|
B|-------------------------------------------------------------------------------------|
G|-------------------------------------------------------------------------------------|
D|-----------------5-5-5-5-5-5-5-5-6-6-6-6-6-6-6-6-2-2-2-2-2-2-2-2---------------------|
A|-2-2-2-2-2-2-2-2-3-3-3-3-3-3-3-3-4-4-4-4-4-4-4-4-0-0-0-0-0-0-0-0---------------------|
E|-0-0-0-0-0-0-0-0---------------------------------------------------------------------|X2
Outro:
e|-------------------------------------------------------------------------------------|
B|-------------------------------------------------------------------------------------|
G|-------------------------------------------------------------------------------------|
D|-11-11-11-11-9-9-9-9-10-10-10-10-13-13-13-13-11-11-11-11-------------11-11-11-11-----|
A|---------------------------------------------------------11-11-11-11-----------------|
E|-------------------------------------------------------------------------------------|

e|---------------------------|
B|---------------------------|
G|-------------11--10--------|
D|-12-12-12-12---------------|
A|---------------------------|
E|---------------------------|

e|----------------------9------------------------------------------9-----------------------|
B|---------------9--12----12--9-----------------------------9--12-----12--9----------------|
G|--------9--11------------------11----9--8----------9--11-------------------11--12-12-12--|
D|-9--11--------------------------------------9--11----------------------------------------|
A|-----------------------------------------------------------------------------------------|
E|-----------------------------------------------------------------------------------------|

Добавлено: 23.09.2014
Другие материалы по этой песне:
  • Аккорды и текст

Страница создана 23.01.2014
http://primanota.ru/mother-mother/infinitesimal-chords.htm
Привет, Гость.
Предлагаем пройти революционный курс по гитаре.
Подарок от PrimaNota.Ru, забирай!