PrimaNota.ru - самый крупный в мире бесплатный архив песенных текстов, аккордов, табулатур и нот


Mother Mother - Try To Change - текст песни, таба, видео

Регистрация Запомнить меня
Войти через:  Facebook Google Twitter Vk Yandex Mail.ru

Mother Mother - Try To Change - текст песни, таба, видео

Печатать
Просмотров: 51
Уроки эстрадного вокала в Санкт-Петербурге
-------------------------------------------------------------------------------
                         TRY TO CHANGE - Mother Mother
-------------------------------------------------------------------------------
Album: O My Heart
Tuning: Standard

I tabbed this by ear. Please feel free to leave criticism and I'll try to improve it
where possible.

Intro part 1 (Shape 1)
e|-----------------0---------------0---------------0---------------0----|
B|-------0---------0-----0---------0-----0---------0-----0---------0----|
G|-------4-----4---------4-----4---------2-----2---------2-----2--------|
D|---------------4---------------4---------------2---------------2------|
A|---4-------4-------4-------4-------0-------0-------0-------2----------|
E|----------------------------------------------------------------------|
     x       x       x       x       x       x       x       x       

e|-----------------0---------------0---------------0---------------0----|
B|-------0---------0-----0---------0-----0---------0-----0---------0----|
G|-------4-----4---------4-----4---------2-----2---------2-----2--------|
D|---------------4---------------4---------------2---------------2------|
A|---4-------4-------4-------4-------0-------0-------0-------0----------|
E|----------------------------------------------------------------------|
     x       x       x       x       x       x       x       x       

e|-----------------0---------------0---------------0--------------------|
B|-------0---------0-----0---------0-----3---------3--------------------|
G|-------4-----4---------4-----4---------0-------0----------------------|
D|---------------4---------------4-------------0-----------0------------|
A|-----------------------------------------------------0h2---2---3------|
E|---4-------4-------4-------4-------3-------3-------3------------------|
     x       x       x       x       x       x       x       x    

e|-----------------0---------------0-----------------0------------------|
B|-------0---------0-----0---------0-----0-----------0------------------|
G|-------4-----4---------4-----4---------2-----2-----2------------------|
D|---------------4---------------4---------------2---2------------------|
A|---4-------4-------4-------4-------0-------0-------0------------------|
E|----------------------------------------------------------------------|
     x       x       x       x       x       x       x       x       

Intro continued + Verse (Shape 1 with slight variations)
e|-----------------0---------------0---------------0---------------0----|
B|-------0---------0-----0---------0-----0---------0-----0---------0----|
G|-------4-----4---------4-----4---------2-----2---------2-----2--------|
D|---------------4---------------4---------------2---------------2------|
A|---4-------4-------4-------4-------0-------0-------0-------2----------|
E|----------------------------------------------------------------------|
     x       x       x       x       x       x       x       x       

e|-----------------0---------------0---------------0--------------------|
B|-------0---------0-----0---------0-----0---------0--------------------|
G|-------4-----4---------4-----4---------2-----2------------------------|
D|---------------4---------------4---------------2----------------------|
A|---4-------4-------4-------4-------0-------0-------0------------------|
E|----------------------------------------------------------------------|
     x       x       x       x       x       x       x       x       

e|-----------------0---------------0---------------0--------------------|
B|-------0---------0-----0---------0-----3---------3--------------------|
G|-------4-----4---------4-----4---------0-------0----------------------|
D|---------------4---------------4-------------0------------------------|
A|----------------------------------------------------------------------|
E|---4-------4-------4-------4-------3-------3-------3------------------|
     x       x       x       x       x       x       x       x    

e|-----------------0---------------0-----------------0------------------|
B|-------0---------0-----0---------0-----0-----------0------------------|
G|-------4-----4---------4-----4---------2-----2-----2------------------|
D|---------------4---------------4---------------2---2------------------|
A|---4-------4-------4-------4-------0-------0-------0------------------|
E|----------------------------------------------------------------------|
     x       x       x       x       x       x       x       x

Bridge ("blew away...") + Last Verse
e|----------------------------------------------------------------------|
B|-------0---------0-----0---------0-----0---------0-----0---------0----|
G|-------2-----2---------2-----2---------2-----2---------2-----2--------|
D|---------------2---------------2---------------2---------------2------|
A|---0-------0-------0-------0-------2-------2-------2-------2----------|
E|----------------------------------------------------------------------|
     x       x       x       x       x       x       x       x

e|----------------------------------------------------------------------|
B|-------0---------0-----0---------0-----0---------0-----0---------0----|
G|-------2-----2---------2-----2---------0-----0---------0-----0--------|
D|---------------2---------------2---------------2---------------2------|
A|---0-------0-------0-------0-------2-------2-------2-------2----------|
E|----------------------------------------------------------------------|
     x       x       x       x       x       x       x       x

repeat until "ahh, it's safe to say some..."
e|---0-------3-------1-------0-------0--------------------------------------|
B|---0-------3-------1-------1-------0--------------------------------------|
G|---1-------0-------2-------0-------1--------------------------------------|
D|---2-------0-------3-------2-------2--------------------------------------|
A|---2-------0-------3-------3-------2--------------------------------------|
E|---0-------3-------1---------------0--------------------------------------|

"don't change..."
e|-------------------2-----|
B|-------0-----------0-----|
G|-------2-----2-----2-----|
D|---------------2---2-----|
A|---2-------2-------2-----|
E|-------------------------|
     x       x       x     

Outro (another variation of Shape 1)
e|-----------------0---------------0---------------0---------------0----|
B|-------0---------0-----0---------0-----0---------0-----0---------0----|
G|-------4-----4---------4-----4---------2-----2---------2-----2--------|
D|---------------4---------------4---------------2---------------2------|
A|---4-------4-------4-------4-------0-------0-------0-------2----------|
E|----------------------------------------------------------------------|
     x       x       x       x       x       x       x       x       

e|-----------------0-------0-----------------------0-------0------------|
B|-------0---------0-------0-------------0---------0-------0------------|
G|-------4-----4---------4-----4---------2-----2---------2-----2--------|
D|---------------4-----4---------4---------------2-----2---------2------|
A|---4-------4-------4-------4-------0-------0-------0-------0----------|
E|----------------------------------------------------------------------|
     x       x       x       x       x       x       x       x       

e|-----------------0-------0-----------------------0--------------------|
B|-------0---------0-------0-------------3---------3--------------------|
G|-------4-----4---------4-----4---------0-------0----------------------|
D|---------------4-----4---------4-------------0-----------0------------|
A|-----------------------------------------------------0h2---2---3------|
E|---4-------4-------4-------4-------3-------3-------3------------------|
     x       x       x       x       x       x       x       x    

e|-----------------0-------0---------------------------------0----------|
B|-------0---------0-------0-------------------------0-------0----------|
G|-------4-----4---------4-----4-------------2---------------2----------|
D|---------------4-----4---------4-------2-------------------2----------|
A|---4-------4-------4-------4-------0-----------------------0----------|
E|----------------------------------------------------------------------|
     x       x       x       x       x       x       x       x    

Good luck have fun!
Добавлено: 15.05.2016
Другие материалы по этой песне:
  • Аккорды и текст

Страница создана 18.08.2013
http://primanota.ru/mother-mother/try-to-change-chords.htm
Привет, Гость.
Предлагаем пройти революционный курс по гитаре.
Подарок от PrimaNota.Ru, забирай!