PrimaNota.ru - самый крупный в мире бесплатный архив песенных текстов, аккордов, табулатур и нот


Mother Mother - Sleep Awake - аккорды и текст, видео

Регистрация Запомнить меня
Войти через:  Facebook Google Twitter Vk Yandex Mail.ru

Mother Mother - Sleep Awake - аккорды и текст, видео

Печатать
Просмотров: 315
Уроки эстрадного вокала в Санкт-Петербурге
Sleep Awake
Mother Mother
Artist: Mother Mother
Song: Sleep Awake
Album: O My Heart (2008)
Link: https://www.youtube.com/watch?v=Wwb35JpIe-4

Standard Tuning (E-A-D-G-B-e)
Key of F

Chords:
A#      : x13331
Dm      : xx0231
Asus4   : x02230 
A7      : x02020
F       : 133211
A       : x02220

Intro and Verse:
Pick or play chords as follows:

  A#                                    Dm                 
|-------------------------------------|-------------------------------------|
|---(3)--(3)--(3)--(3)--(3)--(3)~-----|---(3)--(3)--(3)--(3)--(3)--(3)~-----|
|----0----0----0----0----0----0~------|----0----0----0----0----0----0~------|
|-------------------------------------|-------------------------------------|
|-1----1----1----1----1----1----------|-0----0----0----0----0----0----------|
|-------------------------------------|-------------------------------------|
                             (let ring)                              (let ring)

  A#                      Dm                         Asus4               A7
|--------------------------------------------------|-------------------------------------|
|---(3)---(3)---(3)---(3)---(3)---(3)---(3)---(3)--|---(3)--(3)--(3)--(3)--(2)--(2)~-----|
|----0-----0-----0-----0-----0-----0-----0-----0---|----0----0----0----0----0----0~------|
|-------------0-----0-----2-----2-----0-----0------|-------------------------------------|
|-1-----1------------------------------------------|-0----0----0----0----0----0----------|
|--------------------------------------------------|-------------------------------------|
                                                                                (let ring)

[Verse]

   A#
Protecting you
   Dm
Protecting me
A#                      Dm                     Asus4       A7
 I throw the evidence into a trunk and drop it in the sea

A#
Lie awake
  Dm
I sleep awake
A#                           Dm  
 I sleep with one eye on the bedroom door,
          Asus4         A7
The other on the cake

   A#
Protecting me
   Dm
Protecting you
A#                      Dm                      Asus4              A7 
 Carving away our fingerprints out of our fingertips until they're smooth

[Chorus]

F
Lie awake
  A7
I sleep awake
A#                          Dm
 I sleep with one eye on my royal flush
          Asus4
The other on the take
  A7
I sleep awake

[Verse]

   A#
Protecting this
   Dm
Protecting that
A#                           Dm                           Asus4
 Calling a deadbeat with his dead boat wrapped around his artifact
   A7
Protecting that

A#
Lie awake
  Dm
I sleep awake
A#                           Dm             Asus4           A7
 I sleep with one hand on my 45, the other 'round my baby's waist

[Chorus]

F
Lie awake
  A7
I sleep awake
A#                       Dm
 I go to bed with all my lights turned on
           Asus4
So I don't slip away
  A7
I stay awake

A#                         Dm
Out on the street I keep a started car
         Asus4            A7
Who only waits for me, conveniently

A#

[Breakdown]

F A Dm A# (repeat)

F      A
Lie awake
  Dm       A#
I sleep awake
F      A
Lie awake
  Dm       A#
I sleep awake
F  A   Dm  A#
Ahhh...ahhh...

[Outro] Pick intro again

End with:
 F                                    
|------------------|
|--------------1~--|
|-----------2------|
|--------3---------|
|-----3------------|
|--1---------------|
               (let ring)
Добавлено: 24.11.2015
Другие материалы по этой песне:
  • Аккорды и текст

Страница создана 02.11.2013
http://primanota.ru/mother-mother/sleep-awake-chords.htm
Привет, Гость.
Предлагаем пройти революционный курс по гитаре.
Подарок от PrimaNota.Ru, забирай!