PrimaNota.ru - самый крупный в мире бесплатный архив песенных текстов, аккордов, табулатур и нот


Mors Principium Est - Cleansing Rain - текст песни, таба, видео

Регистрация Запомнить меня
Войти через:  Facebook Google Twitter Vk Yandex Mail.ru

Mors Principium Est - Cleansing Rain - текст песни, таба, видео

Печатать
Просмотров: 123
this really isn't as hard a solo as it sounds at all, it only takes a little
 practice and you'll make it sound perfect.

standard tuning
b = bend to following fret
r = release bend
p = pull off
h = hammer on
~ = wiggle
/ = slide up 
\ = slide down

and now the badassness begins:
|------------------------------------------------------------------------------------|
|-------------------------------------13~~-13p12-13p12-------15p13-15p13p12----15b17~|
|-12p11-12p11-------14p12-14p12p11---------------------14p12----------------14-------|
|-------------14p12----------------14------------------------------------------------|
|------------------------------------------------------------------------------------|
|------------------------------------------------------------------------------------|

|-12p10-12p10-------------------12-14-14b15~~-14-12-19b20r19-17-19~~-|
|-------------13p12----12-13-15--------------------------------------|
|-------------------14-----------------------------------------------|
|--------------------------------------------------------------------|
|--------------------------------------------------------------------|
|--------------------------------------------------------------------|

|---------------14b15r14p12-14~~-|
|-15b17~~-15-12------------------|
|--------------------------------|
|--------------------------------|
|--------------------------------|
|--------------------------------|

|-------------------------------------------------------|
|----13~~-----------------12-13p12----12-13-15-15b17~~--|
|----------------11-12-13----------14-------------------|
|-14-------12-14----------------------------------------|
|-------------------------------------------------------|
|-------------------------------------------------------|

|----------------------------------12/19~~-|
|-------------12-13-15-13-12-13-15---------|
|----11-12-14------------------------------|
|-14---------------------------------------|
|------------------------------------------|
|------------------------------------------|

kind of a weird part right here, not sure if he's using a pitch pedal, 
but i think he's just sliding in a real cool way, 
if i'm wrong though he's still hittin the same notes as this. 
either way, i still think this sounds just the same and f'ing 
sweet once you get it down:
|-19/24\19p15-19p15----15-19/24-15/19\15---------------------|
|-------------------17-------------------17\12/17\12---------|
|----------------------------------------------------12\9/12-|
|------------------------------------------------------------|
|------------------------------------------------------------|
|------------------------------------------------------------|

|------------------------------------------------------------------|
|-13-12-10---------13~~-13-12-10---------15-13-12----------15b17~~-|
|----------12-11-9---------------12-11-9----------14-12-11---------|
|------------------------------------------------------------------|
|------------------------------------------------------------------|
|------------------------------------------------------------------|

|-------------------14p12-------------14b15~~-14h15-----------14~~-12h14------------|
|-17-15-13----------------15-13-12------------------12~~-12-------------------------|
|----------16-14-12----------------14-----------------------12-----------12~~-12----|
|--------------------------------------------------------------------------------14-|
|-----------------------------------------------------------------------------------|
|-----------------------------------------------------------------------------------|

|-------------------------------------------------|
|-13~~-13-12-10---------15-13-12----------15b17~~-|
|---------------12-11-9----------14-12-11---------|
|-------------------------------------------------|
|-------------------------------------------------|
|-------------------------------------------------|

|-------------------14p12-------------14~~-12h14p12p11--12--14/19~~-19b20--r19--15~~-|
|-17-15-13----------------15-13-12---------------------------------------------------|
|----------16-14-12----------------14------------------------------------------------|
|------------------------------------------------------------------------------------|
|------------------------------------------------------------------------------------|
|------------------------------------------------------------------------------------|

so there you go you scavengers... sheeittt, what would you do if there
 weren't people like me to figure this junk out for you? jk, happy playin,
 hope you like! 

-randy the M†LMKR
Добавлено: 16.06.2012
Другие материалы по этой песне:

Страница создана 15.06.2012
http://primanota.ru/mors-principium-est/cleansing-rain-chords.htm
Привет, Гость.
Предлагаем пройти революционный курс по гитаре.
Подарок от PrimaNota.Ru, забирай!