PrimaNota.ru - самый крупный в мире бесплатный архив песенных текстов, аккордов, табулатур и нот


Mors Principium Est - The Unborn - текст песни, таба, видео

Регистрация Запомнить меня
Войти через:  Facebook Google Twitter Vk Yandex Mail.ru

Mors Principium Est - The Unborn - текст песни, таба, видео

Печатать
Просмотров: 143
Уроки эстрадного вокала в Санкт-Петербурге
         The Unborn - Mors Principium Est

Standard tuning.

Guitar 1
E||-------|-------|-------|-------|-------|-------|
B||-------|-------|-------|-------|-------|-------|
G||-------|-------|-------|-------|-------|-------|
D||-------|-------|-------|-------|-------|-------|
A||-------|-------|-------|-------|-------|-------|
E||-------|-------|-------|-------|-------|-------|


  |--3--|  |--3--|  |--3--|  |--3--|     |--3--|  |--3--|  |--3--|  |--3--|   
  E  E  E  E  E  E  E  E  E  E  E  E     E  E  E  E  E  E  E  E  E  E  E  E   
--------------------------------------|--------------------------------------|
--------------------------------------|--------------------------------------|
--------------------------------------|--------------------------------------|
--5--5--5--5--5--5--5--------5--5--5--|--5--5--5--5--------------------------|
--3--3--3--3--3--3--3--------3--3--3--|--3--3--3--3--------4--4--4--4--------|
--------------------------------------|--------------------2--2--2--2--------|


  |--3--|  |--3--|  |--3--|  |--3--|     |--3--|  |--3--|  |--3--|  |--3--|   
  E  E  E  E  E  E  E  E  E  E  E  E     E  E  E  E  E  E  E  E  E  E  E  E   
--------------------------------------|--------------------------------------|
--------------------------------------|--------------------------------------|
--------------------------------------|--------------------------------------|
--------------------------------------|--------------------------------------|
--2--2--2--2--2--2--2--------2--2--2--|--2--2--2--2--------4--4--4--4--------|
--0--0--0--0--0--0--0--------0--0--0--|--0--0--0--0--------2--2--2--2--------|


  |--3--|  |--3--|  |--3--|  |--3--|     |--3--|  |--3--|  |--3--|  |--3--|   
  E  E  E  E  E  E  E  E  E  E  E  E     E  E  E  E  E  E  E  E  E  E  E  E   
--------------------------------------|--------------------------------------|
--------------------------------------|--------------------------------------|
--------------------------------------|--------------------------------------|
--5--5--5--5--5--5--5--------5--5--5--|--5--5--5--5--------------------------|
--3--3--3--3--3--3--3--------3--3--3--|--3--3--3--3--------4--4--4--4--------|
--------------------------------------|--------------------2--2--2--2--------|


  |--3--|  |--3--|  |--3--|  |--3--|     |--3--|  |--3--|  |--3--|  |--3--|   
  E  E  E  E  E  E  E  E  E  E  E  E     E  E  E  E  E  E  E  E  E  E  E  E   
--------------------------------------|--------------------------------------|
--------------------------------------|--------------------------------------|
--------------------------------------|--------------------------------------|
--------------------------------------|--------------------------------------|
--2--2--2--2--2--2--2--------2--2--2--|--2--2--2--2--------4--4--4--4--------|
--0--0--0--0--0--0--0--------0--0--0--|--0--0--0--0--------2--2--2--2--------|


  |--3--|  |--3--|  |--3--|  |--3--|     |-----3----|    |----3----|     
  E  E  E  E  E  E  E  E  E  E  E  E     Q    Q     Q    Q    Q    Q     
--------------------------------------|---------------------------------|
--------------------------------------|---------------------------------|
--------------------------------------|---------------------------------|
--5--5--5--5--5--5--5--------5--5--5--|-------7-------------------------|
--3--3--3--3--3--3--3--------3--3--3--|--7---------10----9--------------|
--------------------------------------|-----------------------8----5----|


  |--3--|   |---3--|   |--3--|  |--3--|   
  E  E  E   E   E  E   E  E  E  E  E  E   
-----------------------------------------|
-----------------------------------------|
-----------------------------------------|
-----------------------------------------|
-----------12--10-----10--L--L-----------|
--0--0--0----------7------------0--0--0--|


   |---3--|   |--3--|  |--3--|   |--3--|   
   E   E  E   E  E  E  E  E  E   E  E  E   
------------------------------------------|
------------------------------------------|
------------------------------------------|
------------------------------------------|
--12--10-----10--L--L--L------------------|
----------7------------7--7--7--11--7--7--|


  |--3--|   |---3--|   |---3---|  |--3--|   
  E  E  E   E   E  E   E   E   E  E  E  E   
-------------------------------------------|
-------------------------------------------|
-------------------------------------------|
-------------------------------------------|
-----------12--10-----10---L---L-----------|
--8--8--8----------8--------------8--8--8--|


   |---3--|   |--3--|   |---3--|  |---3--|   
   E   E  E   E  E  E   E  E   E  E  E   E   
--------------------------------------------|
--------------------------------------------|
--------------------------------------------|
---------------------------7----------------|
--12--10-----10--L--L--10-----10-----9--10--|
----------8-----------------------7---------|


  |--3--|   |---3--|   |--3--|  |--3--|   
  E  E  E   E   E  E   E  E  E  E  E  E   
-----------------------------------------|
-----------------------------------------|
-----------------------------------------|
-----------------------------------------|
-----------12--10-----10--L--L-----------|
--0--0--0----------7------------0--0--0--|


   |---3--|   |--3--|  |--3--|   |--3--|   
   E   E  E   E  E  E  E  E  E   E  E  E   
------------------------------------------|
------------------------------------------|
------------------------------------------|
------------------------------------------|
--12--10-----10--L--L--L------------------|
----------7------------7--7--7--11--7--7--|


  |--3--|   |---3--|   |---3---|  |--3--|   
  E  E  E   E   E  E   E   E   E  E  E  E   
-------------------------------------------|
-------------------------------------------|
-------------------------------------------|
-------------------------------------------|
-----------12--10-----10---L---L-----------|
--8--8--8----------8--------------8--8--8--|


  |--3--|  |--3--|  |--3--|  |--3--|   
  E  E  E  E  E  E  E  E  E  E  E  E   
--------------------------------------|
--------------------------------------|
--9--8--5-----------------------------|
-----------9--7--5--------------------|
--------------------9--7--6-----------|
-----------------------------8--7--5--|


  |--3--|   |---3--|   |--3--|  |--3--|   
  E  E  E   E   E  E   E  E  E  E  E  E   
-----------------------------------------|
-----------------------------------------|
-----------------------------------------|
-----------------------------------------|
-----------12--10-----10--L--L-----------|
--0--0--0----------7------------0--0--0--|


   |---3--|   |--3--|  |--3--|   |--3--|   
   E   E  E   E  E  E  E  E  E   E  E  E   
------------------------------------------|
------------------------------------------|
------------------------------------------|
------------------------------------------|
--12--10-----10--L--L--L------------------|
----------7------------7--7--7--11--7--7--|


  |--3--|   |---3--|   |---3---|  |--3--|   
  E  E  E   E   E  E   E   E   E  E  E  E   
-------------------------------------------|
-------------------------------------------|
-------------------------------------------|
-------------------------------------------|
-----------12--10-----10---L---L-----------|
--8--8--8----------8--------------8--8--8--|


   |---3--|   |--3--|   |---3--|  |---3--|   
   E   E  E   E  E  E   E  E   E  E  E   E   
--------------------------------------------|
--------------------------------------------|
--------------------------------------------|
---------------------------7----------------|
--12--10-----10--L--L--10-----10-----9--10--|
----------8-----------------------7---------|


  |--3--|   |---3--|   |--3--|  |--3--|   
  E  E  E   E   E  E   E  E  E  E  E  E   
-----------------------------------------|
-----------------------------------------|
-----------------------------------------|
-----------------------------------------|
-----------12--10-----10--L--L-----------|
--0--0--0----------7------------0--0--0--|


   |---3--|   |--3--|  |--3--|   |--3--|   
   E   E  E   E  E  E  E  E  E   E  E  E   
------------------------------------------|
------------------------------------------|
------------------------------------------|
------------------------------------------|
--12--10-----10--L--L--L------------------|
----------7------------7--7--7--11--7--7--|


  |--3--|   |---3--|   |---3---|  |--3--|     |-----3----|    |----3----|     
  E  E  E   E   E  E   E   E   E  E  E  E     Q    Q     Q    Q    Q    Q     
-------------------------------------------|---------------------------------|
-------------------------------------------|---------------------------------|
-------------------------------------------|---------------------------------|
-------------------------------------------|-------7-------------------------|
-----------12--10-----10---L---L-----------|--7---------10----9--------------|
--8--8--8----------8--------------8--8--8--|-----------------------8----5----|


  |--3--|  |--3--|   |--3--|  |--3--|     |--3--|   |--3--|  |--3--|  |--3--|   
  E  E  E  E  E  E   E  E  E  E  E  E     E  E  E   E  E  E  E  E  E  E  E  E   
---------------------------------------|---------------------------------------|
---------------------------------------|---------------------------------------|
---------------------------------------|---------------------------------------|
---------------------------------------|---------------------------------------|
-----9--------------10-----------------|--9--------10-----9--------------------|
--0-----0--0--0--0------0--0--0--0--0--|-----0--0------0-----0--0--0--0--0--0--|


   |--3--|  |--3--|               |--3--|  |--3--|   |--3--|  |--3--|   
   E  E  E  E  E  E  Q    Q       E  E  E  E  E  E   E  E  E  E  E  E   
-------------------------------|---------------------------------------|
-------------------------------|---------------------------------------|
-------------------------------|---------------------------------------|
---------------------5----8----|---------------------------------------|
--10-----------------3----6----|-----9--------------10-----------------|
------0--0--0--0--0--3----6----|--0-----0--0--0--0------0--0--0--0--0--|


  |--3--|   |--3--|  |--3--|  |--3--|      |--3--|  |--3--|             
  E  E  E   E  E  E  E  E  E  E  E  E      E  E  E  E  E  E  Q    Q     
---------------------------------------|-------------------------------|
---------------------------------------|-------------------------------|
---------------------------------------|-------------------------------|
---------------------------------------|---------------------5----8----|
--9--------10-----9--------------------|--10-----------------3----6----|
-----0--0------0-----0--0--0--0--0--0--|------0--0--0--0--0--3----6----|


  |--3--|  |--3--|   |--3--|  |--3--|     |--3--|   |--3--|  |--3--|  |--3--|   
  E  E  E  E  E  E   E  E  E  E  E  E     E  E  E   E  E  E  E  E  E  E  E  E   
---------------------------------------|---------------------------------------|
---------------------------------------|---------------------------------------|
---------------------------------------|---------------------------------------|
---------------------------------------|---------------------------------------|
-----9--------------10-----------------|--9--------10-----9--------------------|
--0-----0--0--0--0------0--0--0--0--0--|-----0--0------0-----0--0--0--0--0--0--|


   |--3--|  |--3--|               |--3--|  |--3--|   |--3--|  |--3--|   
   E  E  E  E  E  E  Q    Q       E  E  E  E  E  E   E  E  E  E  E  E   
-------------------------------|---------------------------------------|
-------------------------------|---------------------------------------|
-------------------------------|---------------------------------------|
---------------------5----8----|---------------------------------------|
--10-----------------3----6----|-----9--------------10-----------------|
------0--0--0--0--0--3----6----|--0-----0--0--0--0------0--0--0--0--0--|


  |--3--|   |--3--|  |--3--|  |--3--|      |--3--|  |--3--|             
  E  E  E   E  E  E  E  E  E  E  E  E      E  E  E  E  E  E  Q    Q     
---------------------------------------|-------------------------------|
---------------------------------------|-------------------------------|
---------------------------------------|-------------------------------|
---------------------------------------|---------------------5----8----|
--9--------10-----9--------------------|--10-----------------3----6----|
-----0--0------0-----0--0--0--0--0--0--|------0--0--0--0--0--3----6----|


  |--3--|   |----3----|  |----3---|  |--3--|   
  E  E  E   E    E    E  E    E   E  E  E  E   
----------------------------------------------|
----------------------------------------------|
----------------------------------------------|
----------------------------------------------|
-----------10h--12p--10--9h--10p--9-----------|
--0--0--0----------------------------0--0--0--|


  |----3---|  |---3---|   |--3--|  |---3---|   
  E    E   E  E   E   E   E  E  E  E   E   E   
----------------------------------------------|
----------------------------------------------|
----------------------------------------------|
----------------------------------------------|
--9h--10p--9--7h--9p--7--10--9--7--6h--7p--6--|
----------------------------------------------|


  |--3--|   |----3----|  |----3---|  |--3--|   
  E  E  E   E    E    E  E    E   E  E  E  E   
----------------------------------------------|
----------------------------------------------|
----------------------------------------------|
----------------------------------------------|
-----------10h--12p--10--9h--10p--9-----------|
--8--8--8----------------------------8--8--8--|


   |----3----|  |----3---|  |---3--|  |--3--|   
   E    E    E  E    E   E  E  E   E  E  E  E   
-----------------------------------------------|
-----------------------------------------------|
-----------------------------------------------|
-----------------------------------------------|
--10h--12p--10--9h--10p--9---------------------|
----------------------------0--0--11--0--0--8--|


  |--3--|   |----3----|  |----3---|  |--3--|   
  E  E  E   E    E    E  E    E   E  E  E  E   
----------------------------------------------|
----------------------------------------------|
----------------------------------------------|
----------------------------------------------|
-----------10h--12p--10--9h--10p--9-----------|
--0--0--0----------------------------0--0--0--|


  |----3---|  |---3---|   |--3--|  |---3---|   
  E    E   E  E   E   E   E  E  E  E   E   E   
----------------------------------------------|
----------------------------------------------|
----------------------------------------------|
----------------------------------------------|
--9h--10p--9--7h--9p--7--10--9--7--6h--7p--6--|
----------------------------------------------|


  |--3--|   |----3----|  |----3---|  |--3--|   
  E  E  E   E    E    E  E    E   E  E  E  E   
----------------------------------------------|
----------------------------------------------|
----------------------------------------------|
----------------------------------------------|
-----------10h--12p--10--9h--10p--9-----------|
--8--8--8----------------------------8--8--8--|


   |-----3-----|     |-----3-----|     
   Q     Q     Q     Q     Q     Q     
--------------------------------------|
--------------------------------------|
--------------------------------------|
--------------------------------------|
--------12----------------12----------|
--11----------11----11----------11----|


  |--3--|   |----3----|  |----3---|  |--3--|   
  E  E  E   E    E    E  E    E   E  E  E  E   
----------------------------------------------|
----------------------------------------------|
----------------------------------------------|
----------------------------------------------|
-----------10h--12p--10--9h--10p--9-----------|
--0--0--0----------------------------0--0--0--|


  |----3---|  |---3---|   |--3--|  |---3---|   
  E    E   E  E   E   E   E  E  E  E   E   E   
----------------------------------------------|
----------------------------------------------|
----------------------------------------------|
----------------------------------------------|
--9h--10p--9--7h--9p--7--10--9--7--6h--7p--6--|
----------------------------------------------|


  |--3--|   |----3----|  |----3---|  |--3--|   
  E  E  E   E    E    E  E    E   E  E  E  E   
----------------------------------------------|
----------------------------------------------|
----------------------------------------------|
----------------------------------------------|
-----------10h--12p--10--9h--10p--9-----------|
--8--8--8----------------------------8--8--8--|


   |----3----|  |----3---|  |---3--|  |--3--|   
   E    E    E  E    E   E  E  E   E  E  E  E   
-----------------------------------------------|
-----------------------------------------------|
-----------------------------------------------|
-----------------------------------------------|
--10h--12p--10--9h--10p--9---------------------|
----------------------------0--0--11--0--0--8--|


  |--3--|   |----3----|  |----3---|  |--3--|   
  E  E  E   E    E    E  E    E   E  E  E  E   
----------------------------------------------|
----------------------------------------------|
----------------------------------------------|
----------------------------------------------|
-----------10h--12p--10--9h--10p--9-----------|
--0--0--0----------------------------0--0--0--|


  |----3---|  |---3---|   |--3--|  |---3---|   
  E    E   E  E   E   E   E  E  E  E   E   E   
----------------------------------------------|
----------------------------------------------|
----------------------------------------------|
----------------------------------------------|
--9h--10p--9--7h--9p--7--10--9--7--6h--7p--6--|
----------------------------------------------|


  |--3--|   |----3----|  |----3---|  |--3--|   
  E  E  E   E    E    E  E    E   E  E  E  E   
----------------------------------------------|
----------------------------------------------|
----------------------------------------------|
----------------------------------------------|
-----------10h--12p--10--9h--10p--9-----------|
--8--8--8----------------------------8--8--8--|


   |-----3-----|     |-----3-----|     
   Q     Q     Q     Q     Q     Q     
--------------------------------------|
--------------------------------------|
--------------------------------------|
--------------------------------------|
--------12----------------12----------|
--11----------11----11----------11----|


  |--3--|   |---3--|   |--3--|  |--3--|   
  E  E  E   E   E  E   E  E  E  E  E  E   
-----------------------------------------|
-----------------------------------------|
-----------------------------------------|
-----------------------------------------|
-----------12--10-----10--L--L-----------|
--0--0--0----------7------------0--0--0--|


   |---3--|   |--3--|  |--3--|   |--3--|   
   E   E  E   E  E  E  E  E  E   E  E  E   
------------------------------------------|
------------------------------------------|
------------------------------------------|
------------------------------------------|
--12--10-----10--L--L--L------------------|
----------7------------7--7--7--11--7--7--|


  |--3--|   |---3--|   |---3---|  |--3--|   
  E  E  E   E   E  E   E   E   E  E  E  E   
-------------------------------------------|
-------------------------------------------|
-------------------------------------------|
-------------------------------------------|
-----------12--10-----10---L---L-----------|
--8--8--8----------8--------------8--8--8--|


   |---3--|   |--3--|   |---3--|  |---3--|   
   E   E  E   E  E  E   E  E   E  E  E   E   
--------------------------------------------|
--------------------------------------------|
--------------------------------------------|
---------------------------7----------------|
--12--10-----10--L--L--10-----10-----9--10--|
----------8-----------------------7---------|


  |--3--|   |---3--|   |--3--|  |--3--|   
  E  E  E   E   E  E   E  E  E  E  E  E   
-----------------------------------------|
-----------------------------------------|
-----------------------------------------|
-----------------------------------------|
-----------12--10-----10--L--L-----------|
--0--0--0----------7------------0--0--0--|


   |---3--|   |--3--|  |--3--|   |--3--|   
   E   E  E   E  E  E  E  E  E   E  E  E   
------------------------------------------|
------------------------------------------|
------------------------------------------|
------------------------------------------|
--12--10-----10--L--L--L------------------|
----------7------------7--7--7--11--7--7--|


  |--3--|   |---3--|   |---3---|  |--3--|   
  E  E  E   E   E  E   E   E   E  E  E  E   
-------------------------------------------|
-------------------------------------------|
-------------------------------------------|
-------------------------------------------|
-----------12--10-----10---L---L-----------|
--8--8--8----------8--------------8--8--8--|


   |---3--|   |--3--|  |---3--|  |--3--|   
   E   E  E   E  E  E  E  E   E  E  E  E   
------------------------------------------|
------------------------------------------|
------------------------------------------|
--------------------------7---------------|
--12--10-----10--L--L--7-----10--9--------|
----------8-------------------------8--7--|


  |--3--|   |---3--|   |--3--|  |--3--|   
  E  E  E   E   E  E   E  E  E  E  E  E   
-----------------------------------------|
-----------------------------------------|
-----------------------------------------|
-----------------------------------------|
-----------12--10-----10--L--L-----------|
--0--0--0----------7------------0--0--0--|


   |---3--|   |--3--|  |--3--|   |--3--|   
   E   E  E   E  E  E  E  E  E   E  E  E   
------------------------------------------|
------------------------------------------|
------------------------------------------|
------------------------------------------|
--12--10-----10--L--L--L------------------|
----------7------------7--7--7--11--7--7--|


  |--3--|   |---3--|   |---3---|  |--3--|   
  E  E  E   E   E  E   E   E   E  E  E  E   
-------------------------------------------|
-------------------------------------------|
-------------------------------------------|
-------------------------------------------|
-----------12--10-----10---L---L-----------|
--8--8--8----------8--------------8--8--8--|


   |---3--|   |--3--|   |---3--|  |---3--|   
   E   E  E   E  E  E   E  E   E  E  E   E   
--------------------------------------------|
--------------------------------------------|
--------------------------------------------|
---------------------------7----------------|
--12--10-----10--L--L--10-----10-----9--10--|
----------8-----------------------7---------|


  |--3--|   |---3--|   |--3--|  |--3--|   
  E  E  E   E   E  E   E  E  E  E  E  E   
-----------------------------------------|
-----------------------------------------|
-----------------------------------------|
-----------------------------------------|
-----------12--10-----10--L--L-----------|
--0--0--0----------7------------0--0--0--|


   |---3--|   |--3--|  |--3--|   |--3--|   
   E   E  E   E  E  E  E  E  E   E  E  E   
------------------------------------------|
------------------------------------------|
------------------------------------------|
------------------------------------------|
--12--10-----10--L--L--L------------------|
----------7------------7--7--7--11--7--7--|


  |--3--|   |---3--|   |---3---|  |--3--|   
  E  E  E   E   E  E   E   E   E  E  E  E   
-------------------------------------------|
-------------------------------------------|
-------------------------------------------|
-------------------------------------------|
-----------12--10-----10---L---L-----------|
--8--8--8----------8--------------8--8--8--|


   |---3--|   |--3--|  |---3--|  |--3--|   
   E   E  E   E  E  E  E  E   E  E  E  E   
------------------------------------------|
------------------------------------------|
------------------------------------------|
--------------------------7---------------|
--12--10-----10--L--L--7-----10--9--------|
----------8-------------------------8--7--|


  |--3--|   |----3----|  |----3---|  |--3--|   
  E  E  E   E    E    E  E    E   E  E  E  E   
----------------------------------------------|
----------------------------------------------|
----------------------------------------------|
----------------------------------------------|
-----------10h--12p--10--9h--10p--9-----------|
--0--0--0----------------------------0--0--0--|


  |----3---|  |---3---|   |--3--|  |---3---|   
  E    E   E  E   E   E   E  E  E  E   E   E   
----------------------------------------------|
----------------------------------------------|
----------------------------------------------|
----------------------------------------------|
--9h--10p--9--7h--9p--7--10--9--7--6h--7p--6--|
----------------------------------------------|


  |--3--|   |----3----|  |----3---|  |--3--|   
  E  E  E   E    E    E  E    E   E  E  E  E   
----------------------------------------------|
----------------------------------------------|
----------------------------------------------|
----------------------------------------------|
-----------10h--12p--10--9h--10p--9-----------|
--8--8--8----------------------------8--8--8--|


   |----3----|  |----3---|  |---3--|  |--3--|   
   E    E    E  E    E   E  E  E   E  E  E  E   
-----------------------------------------------|
-----------------------------------------------|
-----------------------------------------------|
-----------------------------------------------|
--10h--12p--10--9h--10p--9---------------------|
----------------------------0--0--11--0--0--8--|


  |--3--|   |----3----|  |----3---|  |--3--|   
  E  E  E   E    E    E  E    E   E  E  E  E   
----------------------------------------------|
----------------------------------------------|
----------------------------------------------|
----------------------------------------------|
-----------10h--12p--10--9h--10p--9-----------|
--0--0--0----------------------------0--0--0--|


  |----3---|  |---3---|   |--3--|  |---3---|   
  E    E   E  E   E   E   E  E  E  E   E   E   
----------------------------------------------|
----------------------------------------------|
----------------------------------------------|
----------------------------------------------|
--9h--10p--9--7h--9p--7--10--9--7--6h--7p--6--|
----------------------------------------------|


  |--3--|   |----3----|  |----3---|  |--3--|   
  E  E  E   E    E    E  E    E   E  E  E  E   
----------------------------------------------|
----------------------------------------------|
----------------------------------------------|
----------------------------------------------|
-----------10h--12p--10--9h--10p--9-----------|
--8--8--8----------------------------8--8--8--|


   |-----3-----|     |-----3-----|     
   Q     Q     Q     Q     Q     Q     
--------------------------------------|
--------------------------------------|
--------------------------------------|
--------------------------------------|
--------12----------------12----------|
--11----------11----11----------11----|


  |--3--|   |----3----|  |----3---|  |--3--|   
  E  E  E   E    E    E  E    E   E  E  E  E   
----------------------------------------------|
----------------------------------------------|
----------------------------------------------|
----------------------------------------------|
-----------10h--12p--10--9h--10p--9-----------|
--0--0--0----------------------------0--0--0--|


  |----3---|  |---3---|   |--3--|  |---3---|   
  E    E   E  E   E   E   E  E  E  E   E   E   
----------------------------------------------|
----------------------------------------------|
----------------------------------------------|
----------------------------------------------|
--9h--10p--9--7h--9p--7--10--9--7--6h--7p--6--|
----------------------------------------------|


  |--3--|   |----3----|  |----3---|  |--3--|   
  E  E  E   E    E    E  E    E   E  E  E  E   
----------------------------------------------|
----------------------------------------------|
----------------------------------------------|
----------------------------------------------|
-----------10h--12p--10--9h--10p--9-----------|
--8--8--8----------------------------8--8--8--|


   |----3----|  |----3---|  |---3--|  |--3--|   
   E    E    E  E    E   E  E  E   E  E  E  E   
-----------------------------------------------|
-----------------------------------------------|
-----------------------------------------------|
-----------------------------------------------|
--10h--12p--10--9h--10p--9---------------------|
----------------------------0--0--11--0--0--8--|


  |--3--|   |----3----|  |----3---|  |--3--|   
  E  E  E   E    E    E  E    E   E  E  E  E   
----------------------------------------------|
----------------------------------------------|
----------------------------------------------|
----------------------------------------------|
-----------10h--12p--10--9h--10p--9-----------|
--0--0--0----------------------------0--0--0--|


  |----3---|  |---3---|   |--3--|  |---3---|   
  E    E   E  E   E   E   E  E  E  E   E   E   
----------------------------------------------|
----------------------------------------------|
----------------------------------------------|
----------------------------------------------|
--9h--10p--9--7h--9p--7--10--9--7--6h--7p--6--|
----------------------------------------------|


  |--3--|   |----3----|  |----3---|  |--3--|   
  E  E  E   E    E    E  E    E   E  E  E  E   
----------------------------------------------|
----------------------------------------------|
----------------------------------------------|
----------------------------------------------|
-----------10h--12p--10--9h--10p--9-----------|
--8--8--8----------------------------8--8--8--|


   |-----3-----|     |-----3-----|       |--3--|  |--3--|  |--3--|  |--3--|   
   Q     Q     Q     Q     Q     Q       E  E  E  E  E  E  E  E  E  E  E  E   
--------------------------------------|--------------------------------------|
--------------------------------------|--------------------------------------|
--------------------------------------|--------------------------------------|
--------------------------------------|--------------------------------------|
--------12----------------12----------|--------------------------------------|
--11----------11----11----------11----|--0--0--0--0--0--0--0--0--0--0--0--0--|


  |---3--|  |--3--|   |---3--|  |--3--|   
  E   E  E  E  E  E   E   E  E  E  E  E   
-----------------------------------------|
-----------------------------------------|
-----------------------------------------|
-----------------------------------------|
--5h--7--------------12p--9--------------|
---------0--0--0--0----------0--0--0--0--|


  |---3---|  |--3--|  |--3--|  |--3--|   
  E    E  E  E  E  E  E  E  E  E  E  E   
----------------------------------------|
----------------------------------------|
----------------------------------------|
----------------------------------------|
--9h--10--------------------------------|
----------8--8--8--8--8--8--8--8--8--8--|


  |---3--|  |--3--|  |---3--|  |--3--|     |--3--|  |--3--|  |--3--|  |--3--|   
  E   E  E  E  E  E  E   E  E  E  E  E     E  E  E  E  E  E  E  E  E  E  E  E   
----------------------------------------|--------------------------------------|
----------------------------------------|--------------------------------------|
----------------------------------------|--------------------------------------|
----------------------------------------|--------------------------------------|
--5h--7--------------7p--0--0--0--0--0--|--------------------------------------|
---------5--5--5--5---------------------|--0--0--0--0--0--0--0--0--0--0--0--0--|


  |---3--|  |--3--|   |---3--|  |--3--|   
  E   E  E  E  E  E   E   E  E  E  E  E   
-----------------------------------------|
-----------------------------------------|
-----------------------------------------|
-----------------------------------------|
--5h--7--------------12p--9--------------|
---------0--0--0--0----------0--0--0--0--|


  |---3---|  |--3--|  |--3--|  |--3--|   
  E    E  E  E  E  E  E  E  E  E  E  E   
----------------------------------------|
----------------------------------------|
----------------------------------------|
----------------------------------------|
--9h--10--------------------------------|
----------8--8--8--8--8--8--8--8--8--8--|


  |---3--|  |--3--|  |---3--|  |--3--|     |--3--|  |--3--|  |--3--|  |--3--|   
  E   E  E  E  E  E  E   E  E  E  E  E     E  E  E  E  E  E  E  E  E  E  E  E   
----------------------------------------|--------------------------------------|
----------------------------------------|--------------------------------------|
----------------------------------------|--------------------------------------|
----------------------------------------|--------------------------------------|
--5h--7--------------7p--0--0--0--0--0--|--------------------------------------|
---------5--5--5--5---------------------|--0--0--0--0--0--0--0--0--0--0--0--0--|


  |---3--|  |--3--|   |---3--|  |--3--|   
  E   E  E  E  E  E   E   E  E  E  E  E   
-----------------------------------------|
-----------------------------------------|
-----------------------------------------|
-----------------------------------------|
--5h--7--------------12p--9--------------|
---------0--0--0--0----------0--0--0--0--|


  |---3---|  |--3--|  |--3--|  |--3--|   
  E    E  E  E  E  E  E  E  E  E  E  E   
----------------------------------------|
----------------------------------------|
----------------------------------------|
----------------------------------------|
--9h--10--------------------------------|
----------8--8--8--8--8--8--8--8--8--8--|


  |---3--|  |--3--|  |---3--|  |--3--|     |--3--|  |--3--|  |--3--|  |--3--|   
  E   E  E  E  E  E  E   E  E  E  E  E     E  E  E  E  E  E  E  E  E  E  E  E   
----------------------------------------|--------------------------------------|
----------------------------------------|--------------------------------------|
----------------------------------------|--------------------------------------|
----------------------------------------|--------------------------------------|
--5h--7--------------7p--0--0--0--0--0--|--------------------------------------|
---------5--5--5--5---------------------|--0--0--0--0--0--0--0--0--0--0--0--0--|


  |---3--|  |--3--|   |---3--|  |--3--|   
  E   E  E  E  E  E   E   E  E  E  E  E   
-----------------------------------------|
-----------------------------------------|
-----------------------------------------|
-----------------------------------------|
--5h--7--------------12p--9--------------|
---------0--0--0--0----------0--0--0--0--|


  |---3---|  |--3--|  |--3--|  |--3--|   
  E    E  E  E  E  E  E  E  E  E  E  E   
----------------------------------------|
----------------------------------------|
----------------------------------------|
----------------------------------------|
--9h--10--------------------------------|
----------8--8--8--8--8--8--8--8--8--8--|


  |---3--|  |--3--|  |---3--|  |--3--|                       
  E   E  E  E  E  E  E   E  E  E  E  E     W                 
----------------------------------------|-------------------|
----------------------------------------|-------------------|
----------------------------------------|-------------------|
----------------------------------------|--2----------------|
--5h--7--------------7p--0--0--0--0--0--|--2----------------|
---------5--5--5--5---------------------|--0----------------|


                                                              -----   ----- 
  W                   W                   W                                 
-------------------|-------------------|-------------------|-------|-------|
-------------------|-------------------|-------------------|-------|-------|
-------------------|-------------------|-------------------|-------|-------|
--L----------------|--L----------------|--L----------------|-------|-------|
--L----------------|--L----------------|--L----------------|-------|-------|
--L----------------|--L----------------|--L----------------|-------|-------|


  -----   |-----3----|    |----3----|     
          Q    Q     Q    Q    Q    Q     
-------|---------------------------------|
-------|---------------------------------|
-------|---------------------------------|
-------|-------7-------------------------|
-------|--7---------10----9--------------|
-------|-----------------------8----5----|


  |--3--|   |---3--|   |--3--|  |--3--|   
  E  E  E   E   E  E   E  E  E  E  E  E   
-----------------------------------------|
-----------------------------------------|
-----------------------------------------|
-----------------------------------------|
-----------12--10-----10--L--L-----------|
--0--0--0----------7------------0--0--0--|


   |---3--|   |--3--|  |--3--|   |--3--|   
   E   E  E   E  E  E  E  E  E   E  E  E   
------------------------------------------|
------------------------------------------|
------------------------------------------|
------------------------------------------|
--12--10-----10--L--L--L------------------|
----------7------------7--7--7--11--7--7--|


  |--3--|   |---3--|   |---3---|  |--3--|   
  E  E  E   E   E  E   E   E   E  E  E  E   
-------------------------------------------|
-------------------------------------------|
-------------------------------------------|
-------------------------------------------|
-----------12--10-----10---L---L-----------|
--8--8--8----------8--------------8--8--8--|


   |---3--|   |--3--|   |---3--|  |---3--|   
   E   E  E   E  E  E   E  E   E  E  E   E   
--------------------------------------------|
--------------------------------------------|
--------------------------------------------|
---------------------------7----------------|
--12--10-----10--L--L--10-----10-----9--10--|
----------8-----------------------7---------|


  |--3--|   |---3--|   |--3--|  |--3--|   
  E  E  E   E   E  E   E  E  E  E  E  E   
-----------------------------------------|
-----------------------------------------|
-----------------------------------------|
-----------------------------------------|
-----------12--10-----10--L--L-----------|
--0--0--0----------7------------0--0--0--|


   |---3--|   |--3--|  |--3--|   |--3--|   
   E   E  E   E  E  E  E  E  E   E  E  E   
------------------------------------------|
------------------------------------------|
------------------------------------------|
------------------------------------------|
--12--10-----10--L--L--L------------------|
----------7------------7--7--7--11--7--7--|


  |--3--|   |---3--|   |---3---|  |--3--|   
  E  E  E   E   E  E   E   E   E  E  E  E   
-------------------------------------------|
-------------------------------------------|
-------------------------------------------|
-------------------------------------------|
-----------12--10-----10---L---L-----------|
--8--8--8----------8--------------8--8--8--|


  |--3--|  |--3--|  |--3--|  |--3--|   
  E  E  E  E  E  E  E  E  E  E  E  E   
--------------------------------------|
--------------------------------------|
--9--8--5-----------------------------|
-----------9--7--5--------------------|
--------------------9--7--6-----------|
-----------------------------8--7--5--|


  |--3--|   |---3--|   |--3--|  |--3--|   
  E  E  E   E   E  E   E  E  E  E  E  E   
-----------------------------------------|
-----------------------------------------|
-----------------------------------------|
-----------------------------------------|
-----------12--10-----10--L--L-----------|
--0--0--0----------7------------0--0--0--|


   |---3--|   |--3--|  |--3--|   |--3--|   
   E   E  E   E  E  E  E  E  E   E  E  E   
------------------------------------------|
------------------------------------------|
------------------------------------------|
------------------------------------------|
--12--10-----10--L--L--L------------------|
----------7------------7--7--7--11--7--7--|


  |--3--|   |---3--|   |---3---|  |--3--|   
  E  E  E   E   E  E   E   E   E  E  E  E   
-------------------------------------------|
-------------------------------------------|
-------------------------------------------|
-------------------------------------------|
-----------12--10-----10---L---L-----------|
--8--8--8----------8--------------8--8--8--|


   |---3--|   |--3--|   |---3--|  |---3--|   
   E   E  E   E  E  E   E  E   E  E  E   E   
--------------------------------------------|
--------------------------------------------|
--------------------------------------------|
---------------------------7----------------|
--12--10-----10--L--L--10-----10-----9--10--|
----------8-----------------------7---------|


  |--3--|   |---3--|   |--3--|  |--3--|   
  E  E  E   E   E  E   E  E  E  E  E  E   
-----------------------------------------|
-----------------------------------------|
-----------------------------------------|
-----------------------------------------|
-----------12--10-----10--L--L-----------|
--0--0--0----------7------------0--0--0--|


   |---3--|   |--3--|  |--3--|   |--3--|   
   E   E  E   E  E  E  E  E  E   E  E  E   
------------------------------------------|
------------------------------------------|
------------------------------------------|
------------------------------------------|
--12--10-----10--L--L--L------------------|
----------7------------7--7--7--11--7--7--|


  |--3--|   |---3--|   |---3---|  |--3--|     |-----3----|    |----3----|     
  E  E  E   E   E  E   E   E   E  E  E  E     Q    Q     Q    Q    Q    Q     
-------------------------------------------|---------------------------------|
-------------------------------------------|---------------------------------|
-------------------------------------------|---------------------------------|
-------------------------------------------|-------7-------------------------|
-----------12--10-----10---L---L-----------|--7---------10----9--------------|
--8--8--8----------8--------------8--8--8--|-----------------------8----7----|


  |--3--|  |--3--|   |--3--|  |--3--|     |--3--|   |--3--|  |--3--|  |--3--|   
  E  E  E  E  E  E   E  E  E  E  E  E     E  E  E   E  E  E  E  E  E  E  E  E   
---------------------------------------|---------------------------------------|
---------------------------------------|---------------------------------------|
---------------------------------------|---------------------------------------|
---------------------------------------|---------------------------------------|
-----9--------------10-----------------|--9--------10-----9--------------------|
--0-----0--0--0--0------0--0--0--0--0--|-----0--0------0-----0--0--0--0--0--0--|


   |--3--|  |--3--|               |--3--|  |--3--|   |--3--|  |--3--|   
   E  E  E  E  E  E  Q    Q       E  E  E  E  E  E   E  E  E  E  E  E   
-------------------------------|---------------------------------------|
-------------------------------|---------------------------------------|
-------------------------------|---------------------------------------|
---------------------5----8----|---------------------------------------|
--10-----------------3----6----|-----9--------------10-----------------|
------0--0--0--0--0--3----6----|--0-----0--0--0--0------0--0--0--0--0--|


  |--3--|   |--3--|  |--3--|  |--3--|      |--3--|  |--3--|             
  E  E  E   E  E  E  E  E  E  E  E  E      E  E  E  E  E  E  Q    Q     
---------------------------------------|-------------------------------|
---------------------------------------|-------------------------------|
---------------------------------------|-------------------------------|
---------------------------------------|---------------------5----8----|
--9--------10-----9--------------------|--10-----------------3----6----|
-----0--0------0-----0--0--0--0--0--0--|------0--0--0--0--0--3----6----|


  |--3--|  |--3--|   |--3--|  |--3--|     |--3--|   |--3--|  |--3--|  |--3--|   
  E  E  E  E  E  E   E  E  E  E  E  E     E  E  E   E  E  E  E  E  E  E  E  E   
---------------------------------------|---------------------------------------|
---------------------------------------|---------------------------------------|
---------------------------------------|---------------------------------------|
---------------------------------------|---------------------------------------|
-----9--------------10-----------------|--9--------10-----9--------------------|
--0-----0--0--0--0------0--0--0--0--0--|-----0--0------0-----0--0--0--0--0--0--|


   |--3--|  |--3--|               |--3--|  |--3--|   |--3--|  |--3--|   
   E  E  E  E  E  E  Q    Q       E  E  E  E  E  E   E  E  E  E  E  E   
-------------------------------|---------------------------------------|
-------------------------------|---------------------------------------|
-------------------------------|---------------------------------------|
---------------------5----8----|---------------------------------------|
--10-----------------3----6----|-----9--------------10-----------------|
------0--0--0--0--0--3----6----|--0-----0--0--0--0------0--0--0--0--0--|


  |--3--|   |--3--|  |--3--|  |--3--|      |--3--|  |--3--|             
  E  E  E   E  E  E  E  E  E  E  E  E      E  E  E  E  E  E  Q    Q     
---------------------------------------|-------------------------------|
---------------------------------------|-------------------------------|
---------------------------------------|-------------------------------|
---------------------------------------|---------------------5----8----|
--9--------10-----9--------------------|--10-----------------3----6----|
-----0--0------0-----0--0--0--0--0--0--|------0--0--0--0--0--3----6----|


  |--3--|   |----3----|  |----3---|  |--3--|   
  E  E  E   E    E    E  E    E   E  E  E  E   
----------------------------------------------|
----------------------------------------------|
----------------------------------------------|
----------------------------------------------|
-----------10h--12p--10--9h--10p--9-----------|
--0--0--0----------------------------0--0--0--|


  |----3---|  |---3---|   |--3--|  |---3---|   
  E    E   E  E   E   E   E  E  E  E   E   E   
----------------------------------------------|
----------------------------------------------|
----------------------------------------------|
----------------------------------------------|
--9h--10p--9--7h--9p--7--10--9--7--6h--7p--6--|
----------------------------------------------|


  |--3--|   |----3----|  |----3---|  |--3--|   
  E  E  E   E    E    E  E    E   E  E  E  E   
----------------------------------------------|
----------------------------------------------|
----------------------------------------------|
----------------------------------------------|
-----------10h--12p--10--9h--10p--9-----------|
--8--8--8----------------------------8--8--8--|


   |----3----|  |----3---|  |---3--|  |--3--|   
   E    E    E  E    E   E  E  E   E  E  E  E   
-----------------------------------------------|
-----------------------------------------------|
-----------------------------------------------|
-----------------------------------------------|
--10h--12p--10--9h--10p--9---------------------|
----------------------------0--0--11--0--0--8--|


  |--3--|   |----3----|  |----3---|  |--3--|   
  E  E  E   E    E    E  E    E   E  E  E  E   
----------------------------------------------|
----------------------------------------------|
----------------------------------------------|
----------------------------------------------|
-----------10h--12p--10--9h--10p--9-----------|
--0--0--0----------------------------0--0--0--|


  |----3---|  |---3---|   |--3--|  |---3---|   
  E    E   E  E   E   E   E  E  E  E   E   E   
----------------------------------------------|
----------------------------------------------|
----------------------------------------------|
----------------------------------------------|
--9h--10p--9--7h--9p--7--10--9--7--6h--7p--6--|
----------------------------------------------|


  |--3--|   |----3----|  |----3---|  |--3--|   
  E  E  E   E    E    E  E    E   E  E  E  E   
----------------------------------------------|
----------------------------------------------|
----------------------------------------------|
----------------------------------------------|
-----------10h--12p--10--9h--10p--9-----------|
--8--8--8----------------------------8--8--8--|


   |-----3-----|     |-----3-----|     
   Q     Q     Q     Q     Q     Q     
--------------------------------------|
--------------------------------------|
--------------------------------------|
--------------------------------------|
--------12----------------12----------|
--11----------11----11----------11----|


  |--3--|   |----3----|  |----3---|  |--3--|   
  E  E  E   E    E    E  E    E   E  E  E  E   
----------------------------------------------|
----------------------------------------------|
----------------------------------------------|
----------------------------------------------|
-----------10h--12p--10--9h--10p--9-----------|
--0--0--0----------------------------0--0--0--|


  |----3---|  |---3---|   |--3--|  |---3---|   
  E    E   E  E   E   E   E  E  E  E   E   E   
----------------------------------------------|
----------------------------------------------|
----------------------------------------------|
----------------------------------------------|
--9h--10p--9--7h--9p--7--10--9--7--6h--7p--6--|
----------------------------------------------|


  |--3--|   |----3----|  |----3---|  |--3--|   
  E  E  E   E    E    E  E    E   E  E  E  E   
----------------------------------------------|
----------------------------------------------|
----------------------------------------------|
----------------------------------------------|
-----------10h--12p--10--9h--10p--9-----------|
--8--8--8----------------------------8--8--8--|


   |----3----|  |----3---|  |---3--|  |--3--|   
   E    E    E  E    E   E  E  E   E  E  E  E   
-----------------------------------------------|
-----------------------------------------------|
-----------------------------------------------|
-----------------------------------------------|
--10h--12p--10--9h--10p--9---------------------|
----------------------------0--0--11--0--0--8--|


  |--3--|   |----3----|  |----3---|  |--3--|   
  E  E  E   E    E    E  E    E   E  E  E  E   
----------------------------------------------|
----------------------------------------------|
----------------------------------------------|
----------------------------------------------|
-----------10h--12p--10--9h--10p--9-----------|
--0--0--0----------------------------0--0--0--|


  |----3---|  |---3---|   |--3--|  |---3---|   
  E    E   E  E   E   E   E  E  E  E   E   E   
----------------------------------------------|
----------------------------------------------|
----------------------------------------------|
----------------------------------------------|
--9h--10p--9--7h--9p--7--10--9--7--6h--7p--6--|
----------------------------------------------|


  |--3--|   |----3----|  |----3---|  |--3--|   
  E  E  E   E    E    E  E    E   E  E  E  E   
----------------------------------------------|
----------------------------------------------|
----------------------------------------------|
----------------------------------------------|
-----------10h--12p--10--9h--10p--9-----------|
--8--8--8----------------------------8--8--8--|


   |-----3-----|     |-----3-----|       |----3----|    |----3----|      
   Q     Q     Q     Q     Q     Q       Q    Q    Q    Q    Q    Q      
--------------------------------------|--------------------------------||
--------------------------------------|--------------------------------||
--------------------------------------|--------------------------------||
--------------------------------------|--------------------------------||
--------12----------------12----------|--2-----------------------------||
--11----------11----11----------11----|--0-----------------------------||




***************************************************************************
###########################################################################
***************************************************************************


Guitar 2
E||-------|-------|-------|-------|-------|-------|
B||-------|-------|-------|-------|-------|-------|
G||-------|-------|-------|-------|-------|-------|
D||-------|-------|-------|-------|-------|-------|
A||-------|-------|-------|-------|-------|-------|
E||-------|-------|-------|-------|-------|-------|


  |--3--|  |--3--|  |--3--|  |--3--|     |--3--|  |--3--|  |--3--|  |--3--|   
  E  E  E  E  E  E  E  E  E  E  E  E     E  E  E  E  E  E  E  E  E  E  E  E   
--------------------------------------|--------------------------------------|
--------------------------------------|--------------------------------------|
--------------------------------------|--------------------------------------|
--5--5--5--5--5--5--5--------5--5--5--|--5--5--5--5--------------------------|
--3--3--3--3--3--3--3--------3--3--3--|--3--3--3--3--------4--4--4--4--------|
--------------------------------------|--------------------2--2--2--2--------|


  |--3--|  |--3--|  |--3--|  |--3--|     |--3--|  |--3--|  |--3--|  |--3--|   
  E  E  E  E  E  E  E  E  E  E  E  E     E  E  E  E  E  E  E  E  E  E  E  E   
--------------------------------------|--------------------------------------|
--------------------------------------|--------------------------------------|
--------------------------------------|--------------------------------------|
--------------------------------------|--------------------------------------|
--2--2--2--2--2--2--2--------2--2--2--|--2--2--2--2--------4--4--4--4--------|
--0--0--0--0--0--0--0--------0--0--0--|--0--0--0--0--------2--2--2--2--------|


  |--3--|  |--3--|  |--3--|  |--3--|     |--3--|  |--3--|  |--3--|  |--3--|   
  E  E  E  E  E  E  E  E  E  E  E  E     E  E  E  E  E  E  E  E  E  E  E  E   
--------------------------------------|--------------------------------------|
--------------------------------------|--------------------------------------|
--------------------------------------|--------------------------------------|
--5--5--5--5--5--5--5--------5--5--5--|--5--5--5--5--------------------------|
--3--3--3--3--3--3--3--------3--3--3--|--3--3--3--3--------4--4--4--4--------|
--------------------------------------|--------------------2--2--2--2--------|


  |--3--|  |--3--|  |--3--|  |--3--|     |--3--|  |--3--|  |--3--|  |--3--|   
  E  E  E  E  E  E  E  E  E  E  E  E     E  E  E  E  E  E  E  E  E  E  E  E   
--------------------------------------|--------------------------------------|
--------------------------------------|--------------------------------------|
--------------------------------------|--------------------------------------|
--------------------------------------|--------------------------------------|
--2--2--2--2--2--2--2--------2--2--2--|--2--2--2--2--------4--4--4--4--------|
--0--0--0--0--0--0--0--------0--0--0--|--0--0--0--0--------2--2--2--2--------|


  |--3--|  |--3--|  |--3--|  |--3--|     |-----3-----|     |-----3-----|     
  E  E  E  E  E  E  E  E  E  E  E  E     Q     Q     Q     Q     Q     Q     
--------------------------------------|-------------------------------------|
--------------------------------------|-------10----------------13----------|
--------------------------------------|--9----------12----11----------11----|
--5--5--5--5--5--5--5--------5--5--5--|-------------------------------------|
--3--3--3--3--3--3--3--------3--3--3--|-------------------------------------|
--------------------------------------|-------------------------------------|


  |--3--|   |---3---|   |--3--|  |--3--|   
  E  E  E   E   E   E   E  E  E  E  E  E   
------------------------------------------|
------------------------------------------|
------------------------------------------|
------------------------------------------|
-----------15--14--12--14--L--L-----------|
--0--0--0------------------------0--0--0--|


   |---3---|   |--3--|   |---3---|   |---3---|   
   E   E   E   E  E  E   E   E   E   E   E   E   
------------------------------------------------|
------------------------------------------------|
------------------------------------------------|
------------------------------------------------|
--15--14--12--14--L--L--------------------------|
------------------------12--12--12--15--12--12--|


  |--3--|   |--3--|  |--3--|  |--3--|   
  E  E  E   E  E  E  E  E  E  E  E  E   
---------------------------------------|
---------------------------------------|
---------------------------------------|
-----------10--9--7--9--L--L-----------|
---------------------------------------|
--8--8--8---------------------8--8--8--|


   |--3--|  |--3--|  |---3--|  |--3--|   
   E  E  E  E  E  E  E   E  E  E  E  E   
----------------------------------------|
----------------------------------------|
----------------------------------------|
--10--9--7--9--L--L--9--10--9-----7--9--|
-------------------------------7--------|
----------------------------------------|


  |--3--|   |---3---|   |--3--|  |--3--|   
  E  E  E   E   E   E   E  E  E  E  E  E   
------------------------------------------|
------------------------------------------|
------------------------------------------|
------------------------------------------|
-----------15--14--12--14--L--L-----------|
--0--0--0------------------------0--0--0--|


   |---3---|   |--3--|   |---3---|   |---3---|   
   E   E   E   E  E  E   E   E   E   E   E   E   
------------------------------------------------|
------------------------------------------------|
------------------------------------------------|
------------------------------------------------|
--15--14--12--14--L--L--------------------------|
------------------------12--12--12--15--12--12--|


  |--3--|   |--3--|  |--3--|  |--3--|     |--3--|  |--3--|  |--3--|  |--3--|   
  E  E  E   E  E  E  E  E  E  E  E  E     E  E  E  E  E  E  E  E  E  E  E  E   
---------------------------------------|--------------------------------------|
---------------------------------------|--------------------------------------|
---------------------------------------|--5--4--2-----------------------------|
-----------10--9--7--9--L--L-----------|-----------5--4--2--------------------|
---------------------------------------|--------------------6--3--2-----------|
--8--8--8---------------------8--8--8--|-----------------------------5--3--2--|


  |--3--|   |---3---|   |--3--|  |--3--|   
  E  E  E   E   E   E   E  E  E  E  E  E   
------------------------------------------|
------------------------------------------|
------------------------------------------|
------------------------------------------|
-----------15--14--12--14--L--L-----------|
--0--0--0------------------------0--0--0--|


   |---3---|   |--3--|   |---3---|   |---3---|   
   E   E   E   E  E  E   E   E   E   E   E   E   
------------------------------------------------|
------------------------------------------------|
------------------------------------------------|
------------------------------------------------|
--15--14--12--14--L--L--------------------------|
------------------------12--12--12--15--12--12--|


  |--3--|   |--3--|  |--3--|  |--3--|   
  E  E  E   E  E  E  E  E  E  E  E  E   
---------------------------------------|
---------------------------------------|
---------------------------------------|
-----------10--9--7--9--L--L-----------|
---------------------------------------|
--8--8--8---------------------8--8--8--|


   |--3--|  |--3--|  |---3--|  |--3--|   
   E  E  E  E  E  E  E   E  E  E  E  E   
----------------------------------------|
----------------------------------------|
----------------------------------------|
--10--9--7--9--L--L--9--10--9-----7--9--|
-------------------------------7--------|
----------------------------------------|


  |--3--|   |---3---|   |--3--|  |--3--|   
  E  E  E   E   E   E   E  E  E  E  E  E   
------------------------------------------|
------------------------------------------|
------------------------------------------|
------------------------------------------|
-----------15--14--12--14--L--L-----------|
--0--0--0------------------------0--0--0--|


   |---3---|   |--3--|   |---3---|   |---3---|   
   E   E   E   E  E  E   E   E   E   E   E   E   
------------------------------------------------|
------------------------------------------------|
------------------------------------------------|
------------------------------------------------|
--15--14--12--14--L--L--------------------------|
------------------------12--12--12--15--12--12--|


  |--3--|   |--3--|  |--3--|  |--3--|     |-----3-----|     |-----3-----|     
  E  E  E   E  E  E  E  E  E  E  E  E     Q     Q     Q     Q     Q     Q     
---------------------------------------|-------------------------------------|
---------------------------------------|-------10----------------13----------|
---------------------------------------|--9----------12----11----------11----|
-----------10--9--7--9--L--L-----------|-------------------------------------|
---------------------------------------|-------------------------------------|
--8--8--8---------------------8--8--8--|-------------------------------------|


  |--3--|  |--3--|   |--3--|  |--3--|     |--3--|   |--3--|  |--3--|  |--3--|   
  E  E  E  E  E  E   E  E  E  E  E  E     E  E  E   E  E  E  E  E  E  E  E  E   
---------------------------------------|---------------------------------------|
---------------------------------------|---------------------------------------|
---------------------------------------|---------------------------------------|
---------------------------------------|---------------------------------------|
-----9--------------10-----------------|--9--------10-----9--------------------|
--0-----0--0--0--0------0--0--0--0--0--|-----0--0------0-----0--0--0--0--0--0--|


   |--3--|  |--3--|               |--3--|  |--3--|   |--3--|  |--3--|   
   E  E  E  E  E  E  Q    Q       E  E  E  E  E  E   E  E  E  E  E  E   
-------------------------------|---------------------------------------|
-------------------------------|---------------------------------------|
-------------------------------|---------------------------------------|
---------------------5----8----|---------------------------------------|
--10-----------------3----6----|-----9--------------10-----------------|
------0--0--0--0--0--3----6----|--0-----0--0--0--0------0--0--0--0--0--|


  |--3--|   |--3--|  |--3--|  |--3--|      |--3--|  |--3--|             
  E  E  E   E  E  E  E  E  E  E  E  E      E  E  E  E  E  E  Q    Q     
---------------------------------------|-------------------------------|
---------------------------------------|-------------------------------|
---------------------------------------|-------------------------------|
---------------------------------------|---------------------5----8----|
--9--------10-----9--------------------|--10-----------------3----6----|
-----0--0------0-----0--0--0--0--0--0--|------0--0--0--0--0--3----6----|


  |---3--|  |--3--|   |--3--|  |--3--|   
  E   E  E  E  E  E   E  E  E  E  E  E   
----------------------------------------|
----------------------------------------|
----------------------------------------|
----------------------------------------|
-----12--------------14-----------------|
--0------0--0--0--0------0--0--0--0--0--|


   |--3--|   |---3--|  |--3--|  |--3--|      |--3--|  |--3--|             
   E  E  E   E  E   E  E  E  E  E  E  E      E  E  E  E  E  E  Q    Q     
-----------------------------------------|-------------------------------|
-----------------------------------------|-------------------------------|
-----------------------------------------|-------------------------------|
-----------------------------------------|---------------------5----8----|
--12--------14-----12--------------------|--14-----------------3----6----|
------0--0------0------0--0--0--0--0--0--|------0--0--0--0--0--3----6----|


  |---3--|  |--3--|   |--3--|  |--3--|   
  E   E  E  E  E  E   E  E  E  E  E  E   
----------------------------------------|
----------------------------------------|
----------------------------------------|
----------------------------------------|
-----12--------------14-----------------|
--0------0--0--0--0------0--0--0--0--0--|


   |--3--|   |---3--|  |--3--|  |--3--|      |--3--|  |--3--|             
   E  E  E   E  E   E  E  E  E  E  E  E      E  E  E  E  E  E  Q    Q     
-----------------------------------------|-------------------------------|
-----------------------------------------|-------------------------------|
-----------------------------------------|-------------------------------|
-----------------------------------------|---------------------5----8----|
--12--------14-----12--------------------|--14-----------------3----6----|
------0--0------0------0--0--0--0--0--0--|------0--0--0--0--0--3----6----|


  |--3--|   |----3----|   |----3----|  |--3--|   
  E  E  E   E    E    E   E    E    E  E  E  E   
------------------------------------------------|
------------------------------------------------|
------------------------------------------------|
------------------------------------------------|
-----------14h--15p--14--12h--14p--12-----------|
--0--0--0------------------------------0--0--0--|


   |----3----|   |----3----|   |---3---|  |----3---|   
   E    E    E   E    E    E   E   E   E  E    E   E   
------------------------------------------------------|
------------------------------------------------------|
------------------------------------------------------|
------------------------------------------------------|
--12h--14p--12--10h--12p--10--14--12--10--9h--10p--9--|
------------------------------------------------------|


  |--3--|   |----3----|   |----3----|  |--3--|   
  E  E  E   E    E    E   E    E    E  E  E  E   
------------------------------------------------|
------------------------------------------------|
------------------------------------------------|
------------------------------------------------|
-----------14h--15p--12--12h--14p--12-----------|
--8--8--8------------------------------8--8--8--|


   |----3----|   |----3----|  |---3--|  |--3--|   
   E    E    E   E    E    E  E  E   E  E  E  E   
-------------------------------------------------|
-------------------------------------------------|
-------------------------------------------------|
-------------------------------------------------|
--14h--15p--14--12h--14p--12---------------------|
------------------------------0--0--11--0--0--8--|


  |--3--|   |----3----|   |----3----|  |--3--|   
  E  E  E   E    E    E   E    E    E  E  E  E   
------------------------------------------------|
------------------------------------------------|
------------------------------------------------|
------------------------------------------------|
-----------14h--15p--14--12h--14p--12-----------|
--0--0--0------------------------------0--0--0--|


   |----3----|   |----3----|   |---3---|  |----3---|   
   E    E    E   E    E    E   E   E   E  E    E   E   
------------------------------------------------------|
------------------------------------------------------|
------------------------------------------------------|
------------------------------------------------------|
--12h--14p--12--10h--12p--10--14--12--10--9h--10p--9--|
------------------------------------------------------|


  |--3--|   |----3----|   |----3----|  |--3--|   
  E  E  E   E    E    E   E    E    E  E  E  E   
------------------------------------------------|
------------------------------------------------|
------------------------------------------------|
------------------------------------------------|
-----------14h--15p--12--12h--14p--12-----------|
--8--8--8------------------------------8--8--8--|


   |-----3-----|     |-----3-----|     
   Q     Q     Q     Q     Q     Q     
--------------------------------------|
--------------------------------------|
--------------------------------------|
--------------------------------------|
--------12----------------12----------|
--11----------11----11----------11----|


  |--3--|   |----3----|   |----3----|  |--3--|   
  E  E  E   E    E    E   E    E    E  E  E  E   
------------------------------------------------|
------------------------------------------------|
------------------------------------------------|
------------------------------------------------|
-----------14h--15p--14--12h--14p--12-----------|
--0--0--0------------------------------0--0--0--|


   |----3----|   |----3----|   |---3---|  |----3---|   
   E    E    E   E    E    E   E   E   E  E    E   E   
------------------------------------------------------|
------------------------------------------------------|
------------------------------------------------------|
------------------------------------------------------|
--12h--14p--12--10h--12p--10--14--12--10--9h--10p--9--|
------------------------------------------------------|


  |--3--|   |----3----|   |----3----|  |--3--|   
  E  E  E   E    E    E   E    E    E  E  E  E   
------------------------------------------------|
------------------------------------------------|
------------------------------------------------|
------------------------------------------------|
-----------14h--15p--12--12h--14p--12-----------|
--8--8--8------------------------------8--8--8--|


   |----3----|   |----3----|  |---3--|  |--3--|   
   E    E    E   E    E    E  E  E   E  E  E  E   
-------------------------------------------------|
-------------------------------------------------|
-------------------------------------------------|
-------------------------------------------------|
--14h--15p--14--12h--14p--12---------------------|
------------------------------0--0--11--0--0--8--|


  |--3--|   |----3----|   |----3----|  |--3--|   
  E  E  E   E    E    E   E    E    E  E  E  E   
------------------------------------------------|
------------------------------------------------|
------------------------------------------------|
------------------------------------------------|
-----------14h--15p--14--12h--14p--12-----------|
--0--0--0------------------------------0--0--0--|


   |----3----|   |----3----|   |---3---|  |----3---|   
   E    E    E   E    E    E   E   E   E  E    E   E   
------------------------------------------------------|
------------------------------------------------------|
------------------------------------------------------|
------------------------------------------------------|
--12h--14p--12--10h--12p--10--14--12--10--9h--10p--9--|
------------------------------------------------------|


  |--3--|   |----3----|   |----3----|  |--3--|   
  E  E  E   E    E    E   E    E    E  E  E  E   
------------------------------------------------|
------------------------------------------------|
------------------------------------------------|
------------------------------------------------|
-----------14h--15p--12--12h--14p--12-----------|
--8--8--8------------------------------8--8--8--|


   |-----3-----|     |-----3-----|     
   Q     Q     Q     Q     Q     Q     
--------------------------------------|
--------------------------------------|
--------------------------------------|
--------------------------------------|
--------12----------------12----------|
--11----------11----11----------11----|


  |--3--|   |---3---|   |--3--|  |--3--|   
  E  E  E   E   E   E   E  E  E  E  E  E   
------------------------------------------|
------------------------------------------|
------------------------------------------|
------------------------------------------|
-----------15--14--12--14--L--L-----------|
--0--0--0------------------------0--0--0--|


   |---3---|   |--3--|   |---3---|   |---3---|   
   E   E   E   E  E  E   E   E   E   E   E   E   
------------------------------------------------|
------------------------------------------------|
------------------------------------------------|
------------------------------------------------|
--15--14--12--14--L--L--------------------------|
------------------------12--12--12--15--12--12--|


  |--3--|   |--3--|  |--3--|  |--3--|   
  E  E  E   E  E  E  E  E  E  E  E  E   
---------------------------------------|
---------------------------------------|
---------------------------------------|
-----------10--9--7--9--L--L-----------|
---------------------------------------|
--8--8--8---------------------8--8--8--|


   |--3--|  |--3--|  |---3--|  |--3--|   
   E  E  E  E  E  E  E   E  E  E  E  E   
----------------------------------------|
----------------------------------------|
----------------------------------------|
--10--9--7--9--L--L--9--10--9-----7--9--|
-------------------------------7--------|
----------------------------------------|


  |--3--|   |---3---|   |--3--|  |--3--|   
  E  E  E   E   E   E   E  E  E  E  E  E   
------------------------------------------|
------------------------------------------|
------------------------------------------|
------------------------------------------|
-----------15--14--12--14--L--L-----------|
--0--0--0------------------------0--0--0--|


   |---3---|   |--3--|   |---3---|   |---3---|   
   E   E   E   E  E  E   E   E   E   E   E   E   
------------------------------------------------|
------------------------------------------------|
------------------------------------------------|
------------------------------------------------|
--15--14--12--14--L--L--------------------------|
------------------------12--12--12--15--12--12--|


  |--3--|   |--3--|  |--3--|  |--3--|   
  E  E  E   E  E  E  E  E  E  E  E  E   
---------------------------------------|
---------------------------------------|
---------------------------------------|
-----------10--9--7--9--L--L-----------|
---------------------------------------|
--8--8--8---------------------8--8--8--|


   |--3--|  |--3--|  |---3---|   |---3---|   
   E  E  E  E  E  E  E   E   E   E   E   E   
--------------------------------------------|
------------------------10----------13------|
---------------------9------12--11------11--|
--10--9--7--9--L--L-------------------------|
--------------------------------------------|
--------------------------------------------|


  |--3--|   |---3---|   |--3--|  |--3--|   
  E  E  E   E   E   E   E  E  E  E  E  E   
------------------------------------------|
------------------------------------------|
------------------------------------------|
------------------------------------------|
-----------15--14--12--14--L--L-----------|
--0--0--0------------------------0--0--0--|


   |---3---|   |--3--|   |---3---|   |---3---|   
   E   E   E   E  E  E   E   E   E   E   E   E   
------------------------------------------------|
------------------------------------------------|
------------------------------------------------|
------------------------------------------------|
--15--14--12--14--L--L--------------------------|
------------------------12--12--12--15--12--12--|


  |--3--|   |--3--|  |--3--|  |--3--|   
  E  E  E   E  E  E  E  E  E  E  E  E   
---------------------------------------|
---------------------------------------|
---------------------------------------|
-----------10--9--7--9--L--L-----------|
---------------------------------------|
--8--8--8---------------------8--8--8--|


   |--3--|  |--3--|  |---3--|  |--3--|   
   E  E  E  E  E  E  E   E  E  E  E  E   
----------------------------------------|
----------------------------------------|
----------------------------------------|
--10--9--7--9--L--L--9--10--9-----7--9--|
-------------------------------7--------|
----------------------------------------|


  |--3--|   |---3---|   |--3--|  |--3--|   
  E  E  E   E   E   E   E  E  E  E  E  E   
------------------------------------------|
------------------------------------------|
------------------------------------------|
------------------------------------------|
-----------15--14--12--14--L--L-----------|
--0--0--0------------------------0--0--0--|


   |---3---|   |--3--|   |---3---|   |---3---|   
   E   E   E   E  E  E   E   E   E   E   E   E   
------------------------------------------------|
------------------------------------------------|
------------------------------------------------|
------------------------------------------------|
--15--14--12--14--L--L--------------------------|
------------------------12--12--12--15--12--12--|


  |--3--|   |--3--|  |--3--|  |--3--|   
  E  E  E   E  E  E  E  E  E  E  E  E   
---------------------------------------|
---------------------------------------|
---------------------------------------|
-----------10--9--7--9--L--L-----------|
---------------------------------------|
--8--8--8---------------------8--8--8--|


   |--3--|  |--3--|  |---3---|   |---3---|   
   E  E  E  E  E  E  E   E   E   E   E   E   
--------------------------------------------|
------------------------10----------13------|
---------------------9------12--11------11--|
--10--9--7--9--L--L-------------------------|
--------------------------------------------|
--------------------------------------------|


  |--3--|   |----3----|   |----3----|  |--3--|   
  E  E  E   E    E    E   E    E    E  E  E  E   
------------------------------------------------|
------------------------------------------------|
------------------------------------------------|
------------------------------------------------|
-----------14h--15p--14--12h--14p--12-----------|
--0--0--0------------------------------0--0--0--|


   |----3----|   |----3----|   |---3---|  |----3---|   
   E    E    E   E    E    E   E   E   E  E    E   E   
------------------------------------------------------|
------------------------------------------------------|
------------------------------------------------------|
------------------------------------------------------|
--12h--14p--12--10h--12p--10--14--12--10--9h--10p--9--|
------------------------------------------------------|


  |--3--|   |----3----|   |----3----|  |--3--|   
  E  E  E   E    E    E   E    E    E  E  E  E   
------------------------------------------------|
------------------------------------------------|
------------------------------------------------|
------------------------------------------------|
-----------14h--15p--12--12h--14p--12-----------|
--8--8--8------------------------------8--8--8--|


   |----3----|   |----3----|  |---3--|  |--3--|   
   E    E    E   E    E    E  E  E   E  E  E  E   
-------------------------------------------------|
-------------------------------------------------|
-------------------------------------------------|
-------------------------------------------------|
--14h--15p--14--12h--14p--12---------------------|
------------------------------0--0--11--0--0--8--|


  |--3--|   |----3----|   |----3----|  |--3--|   
  E  E  E   E    E    E   E    E    E  E  E  E   
------------------------------------------------|
------------------------------------------------|
------------------------------------------------|
------------------------------------------------|
-----------14h--15p--14--12h--14p--12-----------|
--0--0--0------------------------------0--0--0--|


   |----3----|   |----3----|   |---3---|  |----3---|   
   E    E    E   E    E    E   E   E   E  E    E   E   
------------------------------------------------------|
------------------------------------------------------|
------------------------------------------------------|
------------------------------------------------------|
--12h--14p--12--10h--12p--10--14--12--10--9h--10p--9--|
------------------------------------------------------|


  |--3--|   |----3----|   |----3----|  |--3--|   
  E  E  E   E    E    E   E    E    E  E  E  E   
------------------------------------------------|
------------------------------------------------|
------------------------------------------------|
------------------------------------------------|
-----------14h--15p--12--12h--14p--12-----------|
--8--8--8------------------------------8--8--8--|


   |-----3-----|     |-----3-----|     
   Q     Q     Q     Q     Q     Q     
--------------------------------------|
--------------------------------------|
--------------------------------------|
--------------------------------------|
--------12----------------12----------|
--11----------11----11----------11----|


  |--3--|   |----3----|   |----3----|  |--3--|   
  E  E  E   E    E    E   E    E    E  E  E  E   
------------------------------------------------|
------------------------------------------------|
------------------------------------------------|
------------------------------------------------|
-----------14h--15p--14--12h--14p--12-----------|
--0--0--0------------------------------0--0--0--|


   |----3----|   |----3----|   |---3---|  |----3---|   
   E    E    E   E    E    E   E   E   E  E    E   E   
------------------------------------------------------|
------------------------------------------------------|
------------------------------------------------------|
------------------------------------------------------|
--12h--14p--12--10h--12p--10--14--12--10--9h--10p--9--|
------------------------------------------------------|


  |--3--|   |----3----|   |----3----|  |--3--|   
  E  E  E   E    E    E   E    E    E  E  E  E   
------------------------------------------------|
------------------------------------------------|
------------------------------------------------|
------------------------------------------------|
-----------14h--15p--12--12h--14p--12-----------|
--8--8--8------------------------------8--8--8--|


   |----3----|   |----3----|  |---3--|  |--3--|   
   E    E    E   E    E    E  E  E   E  E  E  E   
-------------------------------------------------|
-------------------------------------------------|
-------------------------------------------------|
-------------------------------------------------|
--14h--15p--14--12h--14p--12---------------------|
------------------------------0--0--11--0--0--8--|


  |--3--|   |----3----|   |----3----|  |--3--|   
  E  E  E   E    E    E   E    E    E  E  E  E   
------------------------------------------------|
------------------------------------------------|
------------------------------------------------|
------------------------------------------------|
-----------14h--15p--14--12h--14p--12-----------|
--0--0--0------------------------------0--0--0--|


   |----3----|   |----3----|   |---3---|  |----3---|   
   E    E    E   E    E    E   E   E   E  E    E   E   
------------------------------------------------------|
------------------------------------------------------|
------------------------------------------------------|
------------------------------------------------------|
--12h--14p--12--10h--12p--10--14--12--10--9h--10p--9--|
------------------------------------------------------|


  |--3--|   |----3----|   |----3----|  |--3--|   
  E  E  E   E    E    E   E    E    E  E  E  E   
------------------------------------------------|
------------------------------------------------|
------------------------------------------------|
------------------------------------------------|
-----------14h--15p--12--12h--14p--12-----------|
--8--8--8------------------------------8--8--8--|


   |-----3-----|     |-----3-----|       |--3--|  |--3--|  |--3--|  |--3--|   
   Q     Q     Q     Q     Q     Q       E  E  E  E  E  E  E  E  E  E  E  E   
--------------------------------------|--------------------------------------|
--------------------------------------|--------------------------------------|
--------------------------------------|--------------------------------------|
--------------------------------------|--------------------------------------|
--------12----------------12----------|--------------------------------------|
--11----------11----11----------11----|--0--0--0--0--0--0--0--0--0--0--0--0--|


  |---3--|  |--3--|   |---3--|  |--3--|   
  E   E  E  E  E  E   E   E  E  E  E  E   
-----------------------------------------|
-----------------------------------------|
-----------------------------------------|
-----------------------------------------|
--5h--7--------------12p--9--------------|
---------0--0--0--0----------0--0--0--0--|


  |---3---|  |--3--|  |--3--|  |--3--|   
  E    E  E  E  E  E  E  E  E  E  E  E   
----------------------------------------|
----------------------------------------|
----------------------------------------|
----------------------------------------|
--9h--10--------------------------------|
----------8--8--8--8--8--8--8--8--8--8--|


  |---3--|  |--3--|  |---3--|  |--3--|     |--3--|  |--3--|  |--3--|  |--3--|   
  E   E  E  E  E  E  E   E  E  E  E  E     E  E  E  E  E  E  E  E  E  E  E  E   
----------------------------------------|--------------------------------------|
----------------------------------------|--------------------------------------|
----------------------------------------|--------------------------------------|
----------------------------------------|--------------------------------------|
--5h--7--------------7p--0--0--0--0--0--|--------------------------------------|
---------5--5--5--5---------------------|--0--0--0--0--0--0--0--0--0--0--0--0--|


  |---3--|  |--3--|   |---3--|  |--3--|   
  E   E  E  E  E  E   E   E  E  E  E  E   
-----------------------------------------|
-----------------------------------------|
-----------------------------------------|
-----------------------------------------|
--5h--7--------------12p--9--------------|
---------0--0--0--0----------0--0--0--0--|


  |---3---|  |--3--|  |--3--|  |--3--|   
  E    E  E  E  E  E  E  E  E  E  E  E   
----------------------------------------|
----------------------------------------|
----------------------------------------|
----------------------------------------|
--9h--10--------------------------------|
----------8--8--8--8--8--8--8--8--8--8--|


  |---3--|  |--3--|  |---3--|  |--3--|     |--3--|  |--3--|  |--3--|  |--3--|   
  E   E  E  E  E  E  E   E  E  E  E  E     E  E  E  E  E  E  E  E  E  E  E  E   
----------------------------------------|--------------------------------------|
----------------------------------------|--------------------------------------|
----------------------------------------|--------------------------------------|
----------------------------------------|--------------------------------------|
--5h--7--------------7p--0--0--0--0--0--|--------------------------------------|
---------5--5--5--5---------------------|--0--0--0--0--0--0--0--0--0--0--0--0--|


  |---3--|  |--3--|   |---3--|  |--3--|   
  E   E  E  E  E  E   E   E  E  E  E  E   
-----------------------------------------|
-----------------------------------------|
-----------------------------------------|
-----------------------------------------|
--5h--7--------------12p--9--------------|
---------0--0--0--0----------0--0--0--0--|


  |---3---|  |--3--|  |--3--|  |--3--|   
  E    E  E  E  E  E  E  E  E  E  E  E   
----------------------------------------|
----------------------------------------|
----------------------------------------|
----------------------------------------|
--9h--10--------------------------------|
----------8--8--8--8--8--8--8--8--8--8--|


  |---3--|  |--3--|  |---3--|  |--3--|     |--3--|  |--3--|  |--3--|  |--3--|   
  E   E  E  E  E  E  E   E  E  E  E  E     E  E  E  E  E  E  E  E  E  E  E  E   
----------------------------------------|--------------------------------------|
----------------------------------------|--------------------------------------|
----------------------------------------|--------------------------------------|
----------------------------------------|--------------------------------------|
--5h--7--------------7p--0--0--0--0--0--|--------------------------------------|
---------5--5--5--5---------------------|--0--0--0--0--0--0--0--0--0--0--0--0--|


  |---3--|  |--3--|   |---3--|  |--3--|   
  E   E  E  E  E  E   E   E  E  E  E  E   
-----------------------------------------|
-----------------------------------------|
-----------------------------------------|
-----------------------------------------|
--5h--7--------------12p--9--------------|
---------0--0--0--0----------0--0--0--0--|


  |---3---|  |--3--|  |--3--|  |--3--|   
  E    E  E  E  E  E  E  E  E  E  E  E   
----------------------------------------|
----------------------------------------|
----------------------------------------|
----------------------------------------|
--9h--10--------------------------------|
----------8--8--8--8--8--8--8--8--8--8--|


  |---3--|  |--3--|  |---3--|  |--3--|                       
  E   E  E  E  E  E  E   E  E  E  E  E     W                 
----------------------------------------|-------------------|
----------------------------------------|-------------------|
----------------------------------------|-------------------|
----------------------------------------|--2----------------|
--5h--7--------------7p--0--0--0--0--0--|--2----------------|
---------5--5--5--5---------------------|--0----------------|


                                                              -----   ----- 
  W                   W                   W                                 
-------------------|-------------------|-------------------|-------|-------|
-------------------|-------------------|-------------------|-------|-------|
-------------------|-------------------|-------------------|-------|-------|
--L----------------|--L----------------|--L----------------|-------|-------|
--L----------------|--L----------------|--L----------------|-------|-------|
--L----------------|--L----------------|--L----------------|-------|-------|


  -----   |-----3-----|     |-----3-----|     
          Q     Q     Q     Q     Q     Q     
-------|-------------------------------------|
-------|-------10----------------13----------|
-------|--9----------12----11----------11----|
-------|-------------------------------------|
-------|-------------------------------------|
-------|-------------------------------------|


  |--3--|   |---3---|   |--3--|  |--3--|   
  E  E  E   E   E   E   E  E  E  E  E  E   
------------------------------------------|
------------------------------------------|
------------------------------------------|
------------------------------------------|
-----------15--14--12--14--L--L-----------|
--0--0--0------------------------0--0--0--|


   |---3---|   |--3--|   |---3---|   |---3---|   
   E   E   E   E  E  E   E   E   E   E   E   E   
------------------------------------------------|
------------------------------------------------|
------------------------------------------------|
------------------------------------------------|
--15--14--12--14--L--L--------------------------|
------------------------12--12--12--15--12--12--|


  |--3--|   |--3--|  |--3--|  |--3--|   
  E  E  E   E  E  E  E  E  E  E  E  E   
---------------------------------------|
---------------------------------------|
---------------------------------------|
-----------10--9--7--9--L--L-----------|
---------------------------------------|
--8--8--8---------------------8--8--8--|


   |--3--|  |--3--|  |---3--|  |--3--|   
   E  E  E  E  E  E  E   E  E  E  E  E   
----------------------------------------|
----------------------------------------|
----------------------------------------|
--10--9--7--9--L--L--9--10--9-----7--9--|
-------------------------------7--------|
----------------------------------------|


  |--3--|   |---3---|   |--3--|  |--3--|   
  E  E  E   E   E   E   E  E  E  E  E  E   
------------------------------------------|
------------------------------------------|
------------------------------------------|
------------------------------------------|
-----------15--14--12--14--L--L-----------|
--0--0--0------------------------0--0--0--|


   |---3---|   |--3--|   |---3---|   |---3---|   
   E   E   E   E  E  E   E   E   E   E   E   E   
------------------------------------------------|
------------------------------------------------|
------------------------------------------------|
------------------------------------------------|
--15--14--12--14--L--L--------------------------|
------------------------12--12--12--15--12--12--|


  |--3--|   |--3--|  |--3--|  |--3--|     |--3--|  |--3--|  |--3--|  |--3--|   
  E  E  E   E  E  E  E  E  E  E  E  E     E  E  E  E  E  E  E  E  E  E  E  E   
---------------------------------------|--------------------------------------|
---------------------------------------|--------------------------------------|
---------------------------------------|--5--4--2-----------------------------|
-----------10--9--7--9--L--L-----------|-----------5--4--2--------------------|
---------------------------------------|--------------------6--3--2-----------|
--8--8--8---------------------8--8--8--|-----------------------------5--3--2--|


  |--3--|   |---3---|   |--3--|  |--3--|   
  E  E  E   E   E   E   E  E  E  E  E  E   
------------------------------------------|
------------------------------------------|
------------------------------------------|
------------------------------------------|
-----------15--14--12--14--L--L-----------|
--0--0--0------------------------0--0--0--|


   |---3---|   |--3--|   |---3---|   |---3---|   
   E   E   E   E  E  E   E   E   E   E   E   E   
------------------------------------------------|
------------------------------------------------|
------------------------------------------------|
------------------------------------------------|
--15--14--12--14--L--L--------------------------|
------------------------12--12--12--15--12--12--|


  |--3--|   |--3--|  |--3--|  |--3--|   
  E  E  E   E  E  E  E  E  E  E  E  E   
---------------------------------------|
---------------------------------------|
---------------------------------------|
-----------10--9--7--9--L--L-----------|
---------------------------------------|
--8--8--8---------------------8--8--8--|


   |--3--|  |--3--|  |---3--|  |--3--|   
   E  E  E  E  E  E  E   E  E  E  E  E   
----------------------------------------|
----------------------------------------|
----------------------------------------|
--10--9--7--9--L--L--9--10--9-----7--9--|
-------------------------------7--------|
----------------------------------------|


  |--3--|   |---3---|   |--3--|  |--3--|   
  E  E  E   E   E   E   E  E  E  E  E  E   
------------------------------------------|
------------------------------------------|
------------------------------------------|
------------------------------------------|
-----------15--14--12--14--L--L-----------|
--0--0--0------------------------0--0--0--|


   |---3---|   |--3--|   |---3---|   |---3---|   
   E   E   E   E  E  E   E   E   E   E   E   E   
------------------------------------------------|
------------------------------------------------|
------------------------------------------------|
------------------------------------------------|
--15--14--12--14--L--L--------------------------|
------------------------12--12--12--15--12--12--|


  |--3--|   |--3--|  |--3--|  |--3--|     |-----3-----|     |-----3-----|     
  E  E  E   E  E  E  E  E  E  E  E  E     Q     Q     Q     Q     Q     Q     
---------------------------------------|-------------------------------------|
---------------------------------------|-------10----------------13----------|
---------------------------------------|--9----------12----11----------11----|
-----------10--9--7--9--L--L-----------|-------------------------------------|
---------------------------------------|-------------------------------------|
--8--8--8---------------------8--8--8--|-------------------------------------|


  |--3--|  |--3--|   |--3--|  |--3--|     |--3--|   |--3--|  |--3--|  |--3--|   
  E  E  E  E  E  E   E  E  E  E  E  E     E  E  E   E  E  E  E  E  E  E  E  E   
---------------------------------------|---------------------------------------|
---------------------------------------|---------------------------------------|
---------------------------------------|---------------------------------------|
---------------------------------------|---------------------------------------|
-----9--------------10-----------------|--9--------10-----9--------------------|
--0-----0--0--0--0------0--0--0--0--0--|-----0--0------0-----0--0--0--0--0--0--|


   |--3--|  |--3--|               |--3--|  |--3--|   |--3--|  |--3--|   
   E  E  E  E  E  E  Q    Q       E  E  E  E  E  E   E  E  E  E  E  E   
-------------------------------|---------------------------------------|
-------------------------------|---------------------------------------|
-------------------------------|---------------------------------------|
---------------------5----8----|---------------------------------------|
--10-----------------3----6----|-----9--------------10-----------------|
------0--0--0--0--0--3----6----|--0-----0--0--0--0------0--0--0--0--0--|


  |--3--|   |--3--|  |--3--|  |--3--|      |--3--|  |--3--|             
  E  E  E   E  E  E  E  E  E  E  E  E      E  E  E  E  E  E  Q    Q     
---------------------------------------|-------------------------------|
---------------------------------------|-------------------------------|
---------------------------------------|-------------------------------|
---------------------------------------|---------------------5----8----|
--9--------10-----9--------------------|--10-----------------3----6----|
-----0--0------0-----0--0--0--0--0--0--|------0--0--0--0--0--3----6----|


  |---3--|  |--3--|   |--3--|  |--3--|   
  E   E  E  E  E  E   E  E  E  E  E  E   
----------------------------------------|
----------------------------------------|
----------------------------------------|
----------------------------------------|
-----12--------------14-----------------|
--0------0--0--0--0------0--0--0--0--0--|


   |--3--|   |---3--|  |--3--|  |--3--|      |--3--|  |--3--|             
   E  E  E   E  E   E  E  E  E  E  E  E      E  E  E  E  E  E  Q    Q     
-----------------------------------------|-------------------------------|
-----------------------------------------|-------------------------------|
-----------------------------------------|-------------------------------|
-----------------------------------------|---------------------5----8----|
--12--------14-----12--------------------|--14-----------------3----6----|
------0--0------0------0--0--0--0--0--0--|------0--0--0--0--0--3----6----|


  |---3--|  |--3--|   |--3--|  |--3--|   
  E   E  E  E  E  E   E  E  E  E  E  E   
----------------------------------------|
----------------------------------------|
----------------------------------------|
----------------------------------------|
-----12--------------14-----------------|
--0------0--0--0--0------0--0--0--0--0--|


   |--3--|   |---3--|  |--3--|  |--3--|      |--3--|  |--3--|             
   E  E  E   E  E   E  E  E  E  E  E  E      E  E  E  E  E  E  Q    Q     
-----------------------------------------|-------------------------------|
-----------------------------------------|-------------------------------|
-----------------------------------------|-------------------------------|
-----------------------------------------|---------------------5----8----|
--12--------14-----12--------------------|--14-----------------3----6----|
------0--0------0------0--0--0--0--0--0--|------0--0--0--0--0--3----6----|


  |--3--|   |----3----|   |----3----|  |--3--|   
  E  E  E   E    E    E   E    E    E  E  E  E   
------------------------------------------------|
------------------------------------------------|
------------------------------------------------|
------------------------------------------------|
-----------14h--15p--14--12h--14p--12-----------|
--0--0--0------------------------------0--0--0--|


   |----3----|   |----3----|   |---3---|  |----3---|   
   E    E    E   E    E    E   E   E   E  E    E   E   
------------------------------------------------------|
------------------------------------------------------|
------------------------------------------------------|
------------------------------------------------------|
--12h--14p--12--10h--12p--10--14--12--10--9h--10p--9--|
------------------------------------------------------|


  |--3--|   |----3----|   |----3----|  |--3--|   
  E  E  E   E    E    E   E    E    E  E  E  E   
------------------------------------------------|
------------------------------------------------|
------------------------------------------------|
------------------------------------------------|
-----------14h--15p--12--12h--14p--12-----------|
--8--8--8------------------------------8--8--8--|


   |----3----|   |----3----|  |---3--|  |--3--|   
   E    E    E   E    E    E  E  E   E  E  E  E   
-------------------------------------------------|
-------------------------------------------------|
-------------------------------------------------|
-------------------------------------------------|
--14h--15p--14--12h--14p--12---------------------|
------------------------------0--0--11--0--0--8--|


  |--3--|   |----3----|   |----3----|  |--3--|   
  E  E  E   E    E    E   E    E    E  E  E  E   
------------------------------------------------|
------------------------------------------------|
------------------------------------------------|
------------------------------------------------|
-----------14h--15p--14--12h--14p--12-----------|
--0--0--0------------------------------0--0--0--|


   |----3----|   |----3----|   |---3---|  |----3---|   
   E    E    E   E    E    E   E   E   E  E    E   E   
------------------------------------------------------|
------------------------------------------------------|
------------------------------------------------------|
------------------------------------------------------|
--12h--14p--12--10h--12p--10--14--12--10--9h--10p--9--|
------------------------------------------------------|


  |--3--|   |----3----|   |----3----|  |--3--|   
  E  E  E   E    E    E   E    E    E  E  E  E   
------------------------------------------------|
------------------------------------------------|
------------------------------------------------|
------------------------------------------------|
-----------14h--15p--12--12h--14p--12-----------|
--8--8--8------------------------------8--8--8--|


   |-----3-----|     |-----3-----|     
   Q     Q     Q     Q     Q     Q     
--------------------------------------|
--------------------------------------|
--------------------------------------|
--------------------------------------|
--------12----------------12----------|
--11----------11----11----------11----|


  |--3--|   |----3----|   |----3----|  |--3--|   
  E  E  E   E    E    E   E    E    E  E  E  E   
------------------------------------------------|
------------------------------------------------|
------------------------------------------------|
------------------------------------------------|
-----------14h--15p--14--12h--14p--12-----------|
--0--0--0------------------------------0--0--0--|


   |----3----|   |----3----|   |---3---|  |----3---|   
   E    E    E   E    E    E   E   E   E  E    E   E   
------------------------------------------------------|
------------------------------------------------------|
------------------------------------------------------|
------------------------------------------------------|
--12h--14p--12--10h--12p--10--14--12--10--9h--10p--9--|
------------------------------------------------------|


  |--3--|   |----3----|   |----3----|  |--3--|   
  E  E  E   E    E    E   E    E    E  E  E  E   
------------------------------------------------|
------------------------------------------------|
------------------------------------------------|
------------------------------------------------|
-----------14h--15p--12--12h--14p--12-----------|
--8--8--8------------------------------8--8--8--|


   |----3----|   |----3----|  |---3--|  |--3--|   
   E    E    E   E    E    E  E  E   E  E  E  E   
-------------------------------------------------|
-------------------------------------------------|
-------------------------------------------------|
-------------------------------------------------|
--14h--15p--14--12h--14p--12---------------------|
------------------------------0--0--11--0--0--8--|


  |--3--|   |----3----|   |----3----|  |--3--|   
  E  E  E   E    E    E   E    E    E  E  E  E   
------------------------------------------------|
------------------------------------------------|
------------------------------------------------|
------------------------------------------------|
-----------14h--15p--14--12h--14p--12-----------|
--0--0--0------------------------------0--0--0--|


   |----3----|   |----3----|   |---3---|  |----3---|   
   E    E    E   E    E    E   E   E   E  E    E   E   
------------------------------------------------------|
------------------------------------------------------|
------------------------------------------------------|
------------------------------------------------------|
--12h--14p--12--10h--12p--10--14--12--10--9h--10p--9--|
------------------------------------------------------|


  |--3--|   |----3----|   |----3----|  |--3--|   
  E  E  E   E    E    E   E    E    E  E  E  E   
------------------------------------------------|
------------------------------------------------|
------------------------------------------------|
------------------------------------------------|
-----------14h--15p--12--12h--14p--12-----------|
--8--8--8------------------------------8--8--8--|


   |-----3-----|     |-----3-----|       |----3----|    |----3----|      
   Q     Q     Q     Q     Q     Q       Q    Q    Q    Q    Q    Q      
--------------------------------------|--------------------------------||
--------------------------------------|--------------------------------||
--------------------------------------|--------------------------------||
--------------------------------------|--------------------------------||
--------12----------------12----------|--2-----------------------------||
--11----------11----11----------11----|--0-----------------------------||


*************************************************************************
#########################################################################
*************************************************************************

Duration Legend
---------------
W - whole
H - half
Q - quarter
E - 8th
S - 16th
T - 32nd
X - 64th
. - note dotted
|-n-|  - n-tuplets


Tablature Legend
----------------
L - tied note
x - dead note
g - grace note
(n) - ghost note
> - accentuded note
NH - natural harmonic
AH - artificial harmonic
TH - tapped harmonic
SH - semi harmonic
PH - pitch harmonic
h - hammer on
p - pull off
b - bend
br - bendRelease
pb - preBend
pbr - preBendRelease
brb - bendReleaseBend
\n/ - tremolo bar dip
\n - tremolo bar dive
-/n - tremolo bar Release up
/n\ - tremolo bar inverted dip
/n - tremolo bar return
-\n - tremolo bar Release down
S - shift slide
s - legato slide
/ -  slide into from below or out of upwards
\ -  slide into from above or out of downwards
~ - vibrato
W - wide vibrato
tr - trill
TP - tremolo picking
T - tapping
S - slap
P - pop
< - fade in
^ - brush up
v - brush down


***Special thanks to "bodom658" (http://profile.ultimate-guitar.com/bodom658/)
For making the guitar pro file: 
http://tabs.ultimate-guitar.com/m/mors_principium_est/the_unborn_guitar_pro.htm
Добавлено: 25.10.2013
Вам также может быть интересно:
Другие материалы по этой песне:

Страница создана 21.05.2012
http://primanota.ru/mors-principium-est/the-unborn-chords.htm
Привет, Гость.
Предлагаем пройти революционный курс по гитаре.
Подарок от PrimaNota.Ru, забирай!