PrimaNota.ru - самый крупный в мире бесплатный архив песенных текстов, аккордов, табулатур и нот


Monster Magnet - Super Judge - текст песни, таба, видео

Регистрация Запомнить меня
Войти через:  Facebook Google Twitter Vk Yandex Mail.ru

Monster Magnet - Super Judge - текст песни, таба, видео

Печатать
Просмотров: 89
SUPERJUDGE
Monster Magnet

Key of Dm
Tune down 1/2 step
Tabbed by Ted



MOTIF 
4/4
E|-----------------------------|---------------------------|
B|-----------------------------|---------------------------|
G|o---10h9---9----9\7---7----7-|---5h4---4----4\2---2---2-o|
D|o-0------0----0-----0----0---|-0-----0----0-----0---0---o|
A|-----------------------------|---------------------------|
E|-----------------------------|---------------------------|



VERSE 
4/4
E|------------------------------|--------------------------|
B|------------------------------|--------------------------|
G|o-7--7-7-7--7-7--7-7--7-7-7-7-|-7--7-7-7--7-7--7-7-------|
D|o-7--7-7-7--7-7--7-7--7-7-7-7-|-7--7-7-7--7-7--7-7--5--3-|
A|--5--5-5-5--5-5--5-5--5-5-5-5-|-5--5-5-5--5-5--5-5--5--3-|
E|------------------------------|---------------------3--1-|


E|-----------------------------|---------------------------|
B|-----------------------------|---------------------------|
G|-7--7-7-7--7-7--7-7--7-7-7-7-|-7--7-7-7--7-7--7-7-------o|
D|-7--7-7-7--7-7--7-7--7-7-7-7-|-7--7-7-7--7-7--7-7--3--5-o|
A|-5--5-5-5--5-5--5-5--5-5-5-5-|-5--5-5-5--5-5--5-5--3--5--|
E|-----------------------------|---------------------1--3--|





CHORUS FIG 1
4/4
E|---------------------------| PLAY 3x 1st CHORUS
B|---------------------------| PLAY 7x
G|o----5--5-5-7-7--7-7-7--7-o|
D|o-3--5--5-5-7-7--7-7-7--7-o|
A|--3--3--3-3/5-5--5-5-5--5--|
E|--1------------------------|



CHORUS FIG 2 
2/4                    4/4
E|------------------|--------------|-------------| PLAY 1X FIRST CHORUS
B|------------------|--------------|-------------| 
G|o----5--5-5-5-(0)-|--------------|------------o| AT 2ND CHORUS
D|o-3--5--5-5-5-(0)-|-5------------|------------o| OMIT BARS 2 AND 3
A|--3--3--3-3-3-(0)-|-5------------|-------------| AND GO TO "BRIDGE"
E|--1---------------|-3-(STRUM-"G5"-FOR-2 BARS)--|



CHORUS LEAD FILL 1A
4/4                
E|------------------------------------------| x3
B|------------------------------------------| 
G|o--10--10-12--12-12--15-14--14-14-14-14--o| 
D|o----------------------------------------o| 
A|------------------------------------------| 
E|------------------------------------------|



CHORUS FILL 1B
2/4                      4/4   
E|----------------------|---------| END CHORUS FILL
B|----------------------|---------| 
G|o--10--10-12--12-12---|-12b*---o| *Bend and release at various 
D|o---------------------|--------o|  intervals for 8 beats
A|----------------------|---------| 
E|----------------------|---------|



BRIDGE
4/4
E|----------------------------------|-----------------------------| Play 4X
B|----------------------------------|-----------------------------|
G|----------------------------------|----------------------5-----o|
D|-5/(7)-7\5/7-\5/7-\5/7-\5/(7)-7-7-|-5/(7)-7\5/7-\5/7-\5--5--5--o|
A|-5/(7)-7\5/7-\5/7-\5/7-\5/(7)-7-7-|-5/(7)-7\5/7-\5/7-\5--3--5---|
E|-3/(5)-5\3/5-\3/5-\3/5-\3/(5)-5-5-|-3/(5)-5\3/5-\3/5-\3-----3---|




MOTIF (REPRISE)
4/4 ____________________________________________________LET RING
E|--------------------------------------------------------------| PLAY TWICE WITH
B|--------------------------------------------------------------| "MOTIF", THEN PLAY
G|o-7----------------------------------------------------------o| "MOTIF 2"
D|o-7----------------------------------------------------------o|
A|--5-----------------------------------------------------------|
E|--------------------------------------------------------------|




MOTIF 2
4/4
E|-------------------------------------| STRUM D5 FOR 7 BARS
B|-------------------------------------| THEN PLAY "OUTRO FIG 1"
G|o-9h10-----10p9-----9h10----10--7---o|
D|o------0-0------0-0-------0-------0-o|
A|-------------------------------------|
E|-------------------------------------|




OUTRO FIG 1
4/4
E|----------------------------------|----------------------------------------|
B|----------------------------------|----------------------------------------|
G|o-7-7-7-7-7--7-7----7-7--7-7-7-7--|-7-7-7-7-7-----7-7-----7-7-7-----------o|
D|o-7-7-7-7-7--7-7----7-7--7-7-7-7--|-7-7-7-7-7-----7-7-----7-7-7---3---5---o|
A|--5-5-5-5-5--5-5----5-5--5-5-5-5--|-5-5-5-5-5-----5-5-----5-5-5---3---5----|
E|----------------------------------|-------------------------------1---3----|



OUTRO FIG 2
4/4                                                                 END.  LET RING.
E|------------------------------|---------------------------------||---------|
B|------------------------------|---------------------------------||---------|
G|o-7-----7-----7-----7----7-7--|-7-----7------7-----7-----------o||o-7-----o|
D|o-7-----7-----7-----7----7-7--|-7-----7------7-----7-----3---5-o||o-7-----o|
A|--5-----5-----5-----5----5-5--|-5-----5------5-----5-----3---5--||--5------|
E|------------------------------|--------------------------1---3--||---------|


OUTRO FIG 3
4/4
Strum 8th note D5 chords for 4 Bars.
Then strum 8th note D5 for 3 Bars and F5 for 1 bar.



Repeat OUTRO FIG 2



Play D5 on Beat One 4 BARS (staccato).  Then Play D5 on beat One and let ring.



END
Добавлено: 19.12.2013
Другие материалы по этой песне:

Страница создана 14.05.2012
http://primanota.ru/monster-magnet/super-judge-chords.htm
Привет, Гость.
Предлагаем пройти революционный курс по гитаре.
Подарок от PrimaNota.Ru, забирай!