PrimaNota.ru - самый крупный в мире бесплатный архив песенных текстов, аккордов, табулатур и нот


Monster Magnet - Powertrip - аккорды и текст, таба, бас-таба, видео

Регистрация Запомнить меня
Войти через:  Facebook Google Twitter Vk Yandex Mail.ru

Monster Magnet - Powertrip - аккорды и текст, таба, бас-таба, видео

Печатать
Просмотров: 278
Уроки эстрадного вокала в Санкт-Петербурге
Авторы музыки: Dave Wyndorf
Авторы текста: Dave Wyndorf
Powertrip
Monster Magnet
		   t. See http://www..net/faq/ for more information.                     #
#-----------------------------------------------------------------------------#


/-----------------------------\
| Powertrip by Monster Magnet |
\-----------------------------/

Tabbed by Marcus Greenwood (mush)
fuzzy@mushlet.globalnet.co.uk
AphiD(www.users.globalnet.co.uk/~mushlet)

(clean)
VERSE:
eb|-------------------------------|
Bb|-------------------------------|
Gb|--9-777--9-777--9-7~-----------|
Db|--9-777--9-777--9-7~-----------|
Ab|--7-555--7-555--7-5~-----------|
Eb|-------------------------------|
Who's ...

eb|------------|
Bb|------------|
Gb|--55555555--|
Db|--55555555--|
Ab|--33333333--|
Eb|------------|
fly?

eb|-------------------------------|
Bb|-------------------------------|
Gb|--9-777--9-777--9-7~-----------|
Db|--9-777--9-777--9-7~-----------|
Ab|--7-555--7-555--7-5~-----------|
Eb|-------------------------------|
Who's ...

eb|----------------------|
Bb|----------------------|
Gb|--5555555-7777777-9~--|
Db|--5555555-7777777-9~--|
Ab|--3333333-5555555-7~--|
Eb|----------------------|

[DISTORTION]
VERSE:
eb|-------------------------------|
Bb|-------------------------------|
Gb|--9-777--9-777--9-7~-----------|
Db|--9-777--9-777--9-7~-----------|
Ab|--7-555--7-555--7-5~-----------|
Eb|-------------------------------|

eb|-------------------------------|
Bb|-------------------------------|
Gb|--9-777--9-777--9-7~-----------|
Db|--9-777--9-777--9-7~-----------|
Ab|--7-555--7-555--7-5~-----------|
Eb|-------------------------------|

eb|----------------------|
Bb|----------------------|
Gb|--5555555-7777777-9~--|
Db|--5555555-7777777-9~--|
Ab|--3333333-5555555-7~--|
Eb|----------------------|

eb|-------------------------------|
Bb|-------------------------------|
Gb|--9-777--9-777--9-7~-----------|
Db|--9-777--9-777--9-7~-----------|
Ab|--7-555--7-555--7-5~-----------|
Eb|-------------------------------|

eb|------------------------------------|
Bb|------------------------------------|
Gb|--5555555-7777777-9-777--9-777-9-7~-|
Db|--5555555-7777777-9-777--9-777-9-7~-|
Ab|--3333333-5555555-7-555--7-555-7-5~-|
Eb|------------------------------------|

eb|----------------------------------------------|
Bb|----------------------------------------------|
Gb|--5555-7777----------5555-7777-9--------------|
Db|--5555-7777-77777777-5555-7777-9--------------|
Ab|--3333-5555-77777777-3333-5555-7--------------|
Eb|------------55555555------------0-3-0-3-0-----|
                                   {not for 2nd line}
CHORUS:
eb|-----------------------------------------------------------------------------
Bb|-----------------------------------------------------------------------------
Gb|--9-777--9-777--9-7~--7-555--7-555--7-5~--5-333--5-333--5-3~--9-777--9-777--9
Db|--9-777--9-777--9-7~--7-555--7-555--7-5~--5-333--5-333--5-3~--9-777--9-777--9
Ab|--7-555--7-555--7-5~--5-333--5-333--5-3~--3-111--3-111--3-1~--7-555--7-555--7
Eb|-----------------------------------------------------------------------------

-----|
-----|
-7~--|
-7~--|
-5~--|
-----|


BRIDGE:
eb|-------------------------------|
Bb|-------------------------------|
Gb|--9-777--9-777--9-7~-----------|
Db|--9-777--9-777--9-7~-----------|
Ab|--7-555--7-555--7-5~-----------|
Eb|-------------------------------| x4
Get down!

eb|--------------------------------------------------|
Bb|--------------15p13p12-15p13p12-15p13p12-15p13p12-|
Gb|--14-14-14-14-------------------------------------|
Db|--14-14-14-14-------------------------------------|
Ab|--12-12-12-12-------------------------------------|
Eb|--------------------------------------------------|
(verse played by 2nd guitar)

eb|--------------15p14p12-15p14p12-15p14p12-15p14p12-|
Bb|--------------------------------------------------|
Gb|--14-14-14-14-------------------------------------|
Db|--14-14-14-14-------------------------------------|
Ab|--12-12-12-12-------------------------------------|
Eb|--------------------------------------------------|
(verse played by 2nd guitar)

eb|--------------17p16p14-17p16p14-17p16p14-17p16p14-|
Bb|--------------------------------------------------|
Gb|--14-14-14-14-------------------------------------|
Db|--14-14-14-14-------------------------------------|
Ab|--12-12-12-12-------------------------------------|
Eb|--------------------------------------------------|
(verse played by 2nd guitar)

eb|-----------------|
Bb|-----------------|
Gb|--14-14-14-14----|
Db|--14-14-14-14-2~-|
Ab|--12-12-12-12-2~-|
Eb|--------------0~-| (verse played by 2nd guitar)

(clean)
VERSE:
eb|-------------------------------|
Bb|-------------------------------|
Gb|--9-777--9-777--9-7~-----------|
Db|--9-777--9-777--9-7~-----------|
Ab|--7-555--7-555--7-5~-----------|
Eb|-------------------------------|

eb|------------|
Bb|------------|
Gb|--55555555--|
Db|--55555555--|
Ab|--33333333--|
Eb|------------|

eb|-------------------------------|
Bb|-------------------------------|
Gb|--9-777--9-777--9-7~-----------|
Db|--9-777--9-777--9-7~-----------|
Ab|--7-555--7-555--7-5~-----------|
Eb|-------------------------------|

eb|----------------------|
Bb|----------------------|
Gb|--5555555-7777777-9~--|
Db|--5555555-7777777-9~--|
Ab|--3333333-5555555-7~--|
Eb|----------------------|

(distorted)
eb|-------------------------------|
Bb|-------------------------------|
Gb|--9-777--9-777--9-7~-----------|
Db|--9-777--9-777--9-7~-----------|
Ab|--7-555--7-555--7-5~-----------|
Eb|-------------------------------|x4

CHORUS:
eb|-----------------------------------------------------------------------------
Bb|-----------------------------------------------------------------------------
Gb|--9-777--9-777--9-7~--7-555--7-555--7-5~--5-333--5-333--5-3~--9-777--9-777--9
Db|--9-777--9-777--9-7~--7-555--7-555--7-5~--5-333--5-333--5-3~--9-777--9-777--9
Ab|--7-555--7-555--7-5~--5-333--5-333--5-3~--3-111--3-111--3-1~--7-555--7-555--7
Eb|-----------------------------------------------------------------------------

-----|
-----|
-7~--|
-7~--|
-5~--|
-----|

SOLO over last CHORUS
eb|--12-12-12-15p14p12-15p14p12-15p14p12-15p14p12-----------------|
Bb|---------------------------------------------------------------|
Gb|---------------------------------------------------------------|
Db|---------------------------------------------------------------|
Ab|---------------------------------------------------------------|
Eb|---------------------------------------------------------------|

eb|---------------------------------------------------------------|
Bb|--------------------------------------------------12-15-12-17v-|
Gb|-14b-12----------12b-------------------------------------------|
Db|--------14-12-14-----14--------12----12-14b-12-----------------|
Ab|----------------------------14----14-----------14--------------|
Eb|---------------------------------------------------------------|

eb|--12-12-12-15p14p12-15p14p12-15p14p12-15p14p12-----------------|
Bb|---------------------------------------------------------------|
Gb|---------------------------------------------------------------|
Db|---------------------------------------------------------------|
Ab|---------------------------------------------------------------|
Eb|---------------------------------------------------------------|

eb|--------------15-17b-17b-17b-17-17b-15-------------------------|
Bb|--12-15p12-17--------------------------17-15/17v---------------|
Gb|---------------------------------------------------------------|
Db|---------------------------------------------------------------|
Ab|---------------------------------------------------------------|
Eb|---------------------------------------------------------------|

eb|---------------------------------------------------------------|
Bb|-15p13p12-15p13p12-15p13p12-15p13p12/17v-----------------------|
Gb|---------------------------------------------------------------|
Db|---------------------------------------------------------------|
Ab|---------------------------------------------------------------|
Eb|---------------------------------------------------------------|

ENDING:
eb|-------------------------------|
Bb|-------------------------------|
Gb|--9-777--9-777--9-7~-----------|
Db|--9-777--9-777--9-7~-----------|
Ab|--7-555--7-555--7-5~-----------|
Eb|-------------------------------|x3

eb|----------------------------------|
Bb|----------------------------------|
Gb|--9-777--9-777--9-7--9~-----------|
Db|--9-777--9-777--9-7--9~-----------|
Ab|--7-555--7-555--7-5--7~-----------|
Eb|----------------------------------|

 /------------------------------\
 |Order:                        |
 |Verse (clean)                 |
 |Verse (distorted)             |
 |Chorus                        |
 |Bridge                        |
 |Verse (clean)                 |
 |Verse Riffx4 (distorted)      |
 |Chorus                        |
 |Chorus & Solo                 |
 |Verse Riff End                |
 \------------------------------/
-- Marcus, fuzzy@mushlet.globalnet.co.uk on 08/21/1999 at 17:20:00     
Добавлено: 13.11.2013
Другие материалы по этой песне:
  • Аккорды и текст

Страница создана 24.02.2012
http://primanota.ru/monster-magnet/powertrip-chords.htm
Привет, Гость.
Предлагаем пройти революционный курс по гитаре.
Подарок от PrimaNota.Ru, забирай!