PrimaNota.ru - самый крупный в мире бесплатный архив песенных текстов, аккордов, табулатур и нот


Monster Magnet - Sins A Good Mans Brother - аккорды и текст, таба, видео

Регистрация Запомнить меня
Войти через:  Facebook Google Twitter Vk Yandex Mail.ru

Monster Magnet - Sins A Good Mans Brother - аккорды и текст, таба, видео

Печатать
Просмотров: 152
Авторы музыки: Mark Farner
Авторы текста: Mark Farner
Sins A Good Mans Brother
Monster Magnet
e-mail: 9250128@bn.fnt.hvu.nl
Tune your guitar down 1/2 a step
Tabbed out by Bazz and Cazy,
Hey some more stuff from SPINE OF GOD
Intro
e|--------------------|--------------------|
B|--------------------|--------------------| repeat 4*
G|--------------------|--------------------|
D|--------------------|--------------------|
A|--------5---5h7-5h7-|--------5-7p5-------|
E|0-0h5h7---7---------|0-0h5h7-------7-5-3-|
The last he plays this: (the 4th time)
e|--------------------|--------------------|
B|--------------------|----------77x77-----|
G|--------------------|----------77x77-----|
D|--------------------|----------77x77-----|
A|--------5---5h7-5h7-|----------55x55-----|
E|0-0h5h7---7---------|0-0h5h7-0-----------|
                                   ^listen how to play this..
Now comes the main part
e:-----------------------------------------------| Listen when and how
B:---------------------------------------------3-| to play this main
G|---------------------------------------------2-| part...
D|----------------------------------------2----0-|
A|--------5---5h75h7--------5-7p5---------2------|
E|--0-5h7---7---------0-5h7--------7-5-3--0------|
                                 -----------|
                                 ---3----7--|
Somewhere 'round  1:20  he does  ---2----7--|
                                 -2-0-2--7--|
                                 -2---2--5--|
                                 -0---0-----|
the rythm changes now to two chords with a lead played over it
the chords are:
   Dsus4     E
e|-0-|     |---|
B|-3-|     |---|
G|-2-|     |-1-|
D|-0-|     |-2-|
A|---|     |-2-|
E|---|     |-0-|
Little lead
e|------------------------------------------------|
B|------------------------------------------------|
G|-7b9~~--9b12~~-7-7-7b9~~/12b15~~~---------------|
D|------------------------------------------------|
A|------------------------------------------------|
E|------------------------------------------------|
 At the end when he does that D_thing again then
e|---------------------------------------------------------------------------|
B|---------------------------------------------------------------------------|
G|---------------------------------------------------------------------------|
D|-5-6-7-8-9---10-11-12-13-14------------------------------------------------|
A|-5-6-7-8-9---10-11-12-13-14------------------------------------------------|
E|-3-4-5-6-7----8--9-10-11-12------------------------------------------------|
He does this twice after the second time slide down from 14
                                                         14
                                                         12
Once again a great song by Dave...
>A friend with weed is a friend indeed
Добавлено: 21.05.2012
Другие материалы по этой песне:
  • Аккорды и текст

Страница создана 25.03.2012
http://primanota.ru/monster-magnet/sins-a-good-mans-brother-chords.htm
Привет, Гость.
Предлагаем пройти революционный курс по гитаре.
Подарок от PrimaNota.Ru, забирай!