PrimaNota.ru - самый крупный в мире бесплатный архив песенных текстов, аккордов, табулатур и нот


Monkees - We Were Made for Each Other - текст песни, бас-таба, видео

Регистрация Запомнить меня
Войти через:  Facebook Google Twitter Vk Yandex Mail.ru

Monkees - We Were Made for Each Other - текст песни, бас-таба, видео

Печатать
Просмотров: 103
Tabbed by: 6METAL6BASSIST6
E-mail: petergriffinav@gmai.com

Tuning: EADG

G|----------------------------------------------------------------|
D|----------------3-----------3-------------------------------5---| x2
A|3-----------3-------------------1---1-------1---------5---------|
E|------------------------------------------------3---3-----------|

0:11

G|----------------------------------------------------------------|
D|------------------------------------------------------------5---|
A|3-----------3---0---0-------0-/-5---5-------5---------5---------|
E|------------------------------------------------3---3-----------|

G|----------------------------------------------------------------|
D|------------------------------------------------------------5---|
A|3-----------3-------------------1---1-------1---------5---------|
E|----------------1---1-------1-------------------3---3-----------|

G|----------------------------------------------------------------|
D|------------------------------------------------------------5---|
A|3-----------3---0---0-------0-/-5---5-------5---------5---------|
E|------------------------------------------------3---3-----------|

G|----------------------------------------------------------------|
D|------------------------------------------------5---------------|
A|0-----------0-/-5---5-------5---------------5---------5---------|
E|--------------------------------3---------------------------3---|

0:30

G|----------------------------------------------------------------|
D|------------------------------------------/-3---0---0-------0---|
A|3-----3-2-----2-0-----0-----------------------------------------|
E|------------------------3-----3-1-------------------------------|

G|----------------------------------------------------------------|
D|----------------5-------------------------------------------5---|
A|------------5---------5---------3-----------3-------------------|
E|3---------------------------3-------------------3---------------|

G|----------------------------------------------------------------|
D|------------------------------------------/-3---0-----------0---|
A|3-------2-----2-0-----0-----------------------------------------|
E|------------------------3-----3-1-------------------------------|

G|----------------------------------------------------------------|
D|----------------5-------------------------------5---------------|
A|------------5---------5---------------------5---------5---------|
E|3---------------------------3---3---------------------------3---|

0:50

G|----------------------------------------------------------------|
D|------------------------------------------------------------5---|
A|3-----------3-------------------1---1-------1---------5---------|
E|----------------1---1-------1-------------------3---3-----------|

0:55

G|----------------------------------------------------------------|
D|------------------------------------------------------------5---|
A|3-----------3---0-----------0-/-5-----------5---------5---------|
E|------------------------------------------------3---3-----------|

G|----------------------------------------------------------------|
D|----------------------------------------------------------5-5---|
A|3-----------3-------------------1---1-------1---------5---------|
E|----------------1---1-------1-------------------3---3-----------|

G|----------------------------------------------------------------|
D|------------------------------------------------5---------------|
A|3-----------3---0---0-------0-/-5---5-----------------5---------|
E|------------------------------------------------------------3---|

G|----------------------------------------------------------------|
D|------------------------------------------------5-----5---3-0---|
A|0-----------0-/-5---5-------5---------------5-------------------|
E|--------------------------------3---3---------------------------|

1:15

G|----------------------------------------------------------------|
D|------------------------------------------/-3---0-----------0---|
A|3-----3-2-----2-0-----0-----------------------------------------|
E|------------------------3-----3-1-------------------------------|

G|----------------------------------------------------------------|
D|----------------5-----------------------------------------------|
A|------------5---------5---------3-----------3-------------------|
E|3---------------------------3-------------------3-----3-----3---|

G|----------------------------------------------------------------|
D|------------------------------------------/-3---0-----------0---|
A|3-----3-2-----2-0-----0-----------------------------------------|
E|------------------------3-----3-1-------------------------------|

G|----------------------------------------------------------------|
D|----------------5-------------------------------5---------------|
A|------------5---------5---------------------5---------5---------|
E|3---------------------------3---3---------------------------3---|

1:35

G|----------------------------------------------------------------|
D|----------------------------------------------------------------|
A|3-----------3---0---0-------0-/-5---5-------5-------------------|
E|------------------------------------------------3---------------|

1:40

G|----------------------------------------------------------------|
D|------------------------------------------------6---------------|
A|4-----------4-------------------6---6-------6---------6---------|
E|----------------6---6-------6-----------------------------------|

1:45

G|----------------------------------------------------------------|
D|--------------------------------------------4-------------------|
A|4-----4-3-----3-1-----1-------------------------6---6-------6---|
E|------------------------4-----4-2-------------------------------|

G|----------------------------------------------------------------|
D|----------------6-------------------------------------------6---|
A|------------6---------6---------4-----------4---------6---------|
E|4---4-----------------------4-------------------4---------------|

G|----------------------------------------------------------------|
D|--------------------------------------------4-------------------|
A|4-----4-3-----3-1-----1-------------------------6---6-------6---|
E|------------------------4-----4-2-------------------------------|

G|----------------------------------------------------------------|
D|----------------6-------------------------------6---------------|
A|------------6---------6---------------------6---------6---------|
E|4---4-----------------------4---4---4-----------------------4---|

2:03

G|----------------------------------------------------------------|
D|------------------------------------------------------------6---|
A|4---4-------4-------------------6---6-------6---------6---------|
E|----------------6---6-------6-------------------4---4-----------|

G|----------------------------------------------------------------|
D|------------------------------------------------------------6---|
A|4-----------4-------------------6---6-------6---------6---------|
E|----------------6---6---------------------------4---4-----------|

G|----------------------------------------------------------------|
D|------------------------------------------------------------6---| fades out here.
A|4---4-------4-------------------6---6-------6---------6---------|
Добавлено: 04.03.2016
Другие материалы по этой песне:
  • Аккорды и текст

Страница создана 06.08.2013
http://primanota.ru/monkees/we-were-made-for-each-other-chords.htm
Привет, Гость.
Предлагаем пройти революционный курс по гитаре.
Подарок от PrimaNota.Ru, забирай!