PrimaNota.ru - самый крупный в мире бесплатный архив песенных текстов, аккордов, табулатур и нот


Monkees - If You Have The Time - текст песни, бас-таба, видео

Регистрация Запомнить меня
Войти через:  Facebook Google Twitter Vk Yandex Mail.ru

Monkees - If You Have The Time - текст песни, бас-таба, видео

Печатать
Просмотров: 40
Уроки эстрадного вокала в Санкт-Петербурге
Tabbed by: 6METAL6BASSIST6
E-mail: petergriffinav@gmail.com

Tuning: EADG

G|------------------------------------------------------------------------------------------------|
D|------------3---------5-------------3---2-------------------3---------3-------------3---2-------|
A|3---------3-------------3---------3-------5-----3---------3-------------3---------3-------5-----|
E|----------------------------------------------3-----------------------------------------------3-|

0:08

G|----------------------------------------------------------------------------------------2-3---4-|
D|------------3---------3-------------3---2-------------------3---------3-----2-4-----5-----------|
A|3---------3-------------3---------3-------5-----3---------3-------------5-----------------------|
E|----------------------------------------------3-------------------------------------------------|

G|5-----------------------------------------------------------------------------------------------|
D|----------5-3---------5-------------3---2-------------------3---------3-------4-----5-----------|
A|------------------------3---------3-------5-----3---------3-------------5---5-------------5---/-|
E|------------------------------------------------------------------------------------------------|

0:23

G|------------------------------------------------------------------------------------------------|
D|--------------------------------------/-6-------------------------------------------------------|
A|7-----7-----7-----7-----7---------5-------------------------------------7-----7-----7-----7---/-|
E|----------------------------------------------7-0-----0-----0-----0---7-------------------------|

G|------------------------10--9-------------------------------------------------------------------|
D|------------10----10----------10----7-----10----------------10----------5---3/5-----5---/-5-----|
A|8-----------------------------------------------8---------8-------8-\---------------------------|
E|------------------------------------------------------------------------------------------------|

0:39

G|------------------------------------------------------------------------------------------------|
D|3-----3-----------------3-----3-----------3-----3-----3---------------/-5---/-5---/-5---/-5---/-|
A|----------3-------3---------------3-----3-----3-------------3-----3-----------------------------|
E|------------------------------------------------------------------------------------------------|

G|------------------------|
D|5---/-5---/-5---/-5-----|
A|------------------------|
E|------------------------|

G|------------------------------------------------------------------5-----------5---8-------------|
D|------------2-----2---/-7-----7-----5-----2-----3-----5-----7-----------6---8-------6-----6---/-|
A|3-----3-----------------------------------------------------------------------------------------|
E|------------------------------------------------------------------------------------------------|

G|------------------9-----12----------------------|
D|10----10----10--12----10------12----9-----------|
A|------------------------------------------10\---|
E|------------------------------------------------|

1:00

G|------------------------------------------------------------------------------------------------|
D|------------3---------3-------------3---2-------------------3---------3-------------------------|
A|3---------3-------------3---------3-------5-----3---------3-------------5-----3-----2-----------|
E|----------------------------------------------3-------------------------------------------3-----|

G|------------------------------------------------------------------------7---5-4-----------------|
D|------------3---------3-------------3---2-------------------3---------------------7-5-----------|
A|3---------3-------------3---------3-------5-----3---------3-------------------------------5---/-|
E|------------------------------------------------------------------------------------------------|

1:15

G|------------------------------------------------------------------------------------------------|
D|--------------------------------------/-6-------------------------------------------------------|
A|7-----7-----7-----7-----7-----7---5-------------------------------------7-----7-----7-----7-----|
E|------------------------------------------------0-----0-----0-----0-----------------------------|

G|------------------------10--9-------------------------------------------------------------------|
D|----------------------10------10----7---7-10----------------10----------5---3/5-----5---/-5-----|
A|8-----8-----8-----8-----------------------------8-----8---8-------8-\---------------------------|
E|------------------------------------------------------------------------------------------------|

1:30

G|------------------------------------------------------------------------------------------------|
D|3-----3-----------------3-----3-----------------3-----3-----------3---/-5-----5-----5-----5---3/|
A|------------3-----3---3-----3-------3-----3-----------------3-----------------------------------|
E|------------------------------------------------------------------------------------------------|

G|------------------------|
D|5---5-5---3/5-----5-\---|
A|------------------------|
E|------------------------|

G|----------------------------------------------------------------5-5-----------5-----8-----------|
D|------------2-----2---/-7-----7-----5-----2-----3-----5-----7-----------6---8-----6-------6---/-|
A|3-----3-----------------------------------------------------------------------------------------|
E|------------------------------------------------------------------------------------------------|

G|------9-----12----------12-----------12----------|
D|10--12------------14--------12-14--12----12------|
A|-------------------------------------------10\---|
E|-------------------------------------------------|

1:51

G|------------------------------------------------------------------------7-----------------------|
D|----------2h3-----3---5-----------2h3---2----------------------------------------10-9-----------|
A|3-----3-----------------3-----3-----------5-----3-----------------------------------------10\---|
E|------------------------------------------------------------5-----------------------------------|

G|------------------------------------------------------------------------------|
D|----------2h3-----3---------------2h3-----3---/-10----------7-----------------| fades out here.
A|3-----3-----------------3-----3---------------------------10------------5-----|
E|------------------------------------------------------------------------------|
Добавлено: 13.10.2017
Другие материалы по этой песне:
  • Аккорды и текст

Страница создана 27.02.2014
http://primanota.ru/monkees/if-you-have-the-time-chords.htm
Привет, Гость.
Предлагаем пройти революционный курс по гитаре.
Подарок от PrimaNota.Ru, забирай!