PrimaNota.ru - самый крупный в мире бесплатный архив песенных текстов, аккордов, табулатур и нот


Monkees - Ill Be Back Up On My Feet - аккорды и текст, бас-таба, видео

Регистрация Запомнить меня
Войти через:  Facebook Google Twitter Vk Yandex Mail.ru

Monkees - Ill Be Back Up On My Feet - аккорды и текст, бас-таба, видео

Печатать
Просмотров: 93
Ill Be Back Up On My Feet
Monkees
Intro: A

bass
G------------------|------------------|
D------------------|------------------|
A--0---0---0-0---0-|--0---0---0-0---0-|
E----0---------0---|----0---------0---|

guitar
E----------------------|----------------------|
B-----2-3--2-3--2-0-2--|-----2-3--2-3--2-0-2--|
G--2-------------------|--2-------------------|
D----------------------|----------------------|
A----------------------|----------------------|
E----------------------|----------------------|

A
Girl, I know the grass is greener
Dm6
Just around the bend
E                                 E7
Got to say goodbye, but don't you fear
D                   E
Though the road is broken,
        A/C#             D/F#
I might fail to find the end
E  B          E
I won't disappear

A
I'll be back upon my feet, I'll be back upon my feet
D                   E
Chase the moon and sun to find my
A            A7
One and only you
D
I'll get back upon my feet, I'll get back upon my feet
G/B                D/A
Looking high, I'm looking low
       G   D/F#  E7   G              D
When I find my boots, I know I gotta go
              E
Back upon my feet
A
Aaah, aaah


Instrumental: A Dm6 E E7

E--------------------|-------0-1-0-----|-0-4-5--4-5--4-2-4-|-0-0----10-10-|
B----2-3--2-3--2-0-2-|-3-2-3-------3-4-|-------------------|-----3--------|
G-2------------------|-----------------|-------------------|--------------|
D--------------------|-----------------|-------------------|--------------|
A--------------------|-----------------|-------------------|--------------|
E--------------------|-----------------|-------------------|--------------|
Добавлено: 14.10.2013
Другие материалы по этой песне:
  • Аккорды и текст

Страница создана 14.10.2013
http://primanota.ru/monkees/ill-be-back-up-on-my-feet-chords.htm
Привет, Гость.
Предлагаем пройти революционный курс по гитаре.
Подарок от PrimaNota.Ru, забирай!