PrimaNota.ru - самый крупный в мире бесплатный архив песенных текстов, аккордов, табулатур и нот


Miyavi - Rock No Gyakushuu - таба, видео

Регистрация Запомнить меня
Войти через:  Facebook Google Twitter Vk Yandex Mail.ru

Miyavi - Rock No Gyakushuu - таба, видео

Печатать
Просмотров: 105
Miyavi - Rock No Gyakushuu

Tabbed by : Keyser
Date :  19 / 03 / 06

Tuning - C#,F#,B,E,G#,C#

Palm Mute or Left Hand Mute : X
Slide Down :
Slide Up : /
Tremolo : ~
Harmonics : ()
Hammer On : h
Pull Off : p
Pick towards you : ^ under the actual tab lines
Bend up : ^ within the tab itself
Re-pick during bend : r after ^

Intro / Main Riff :

C#|---------------------------------------------------------|
G#|---------------------------------------------------------|
E |---------------------------------------------------------|
B |---------------------------------------------------------|
F#|--2--5--2----8-7-5/8-8-7-5----2--5--2----7-8-9-12--------|
C#|--0--3--0----6-5-3/6-6-5-3----0--3--0----5-6-7-10--------|
                                            ^ ^ ^ ^

C#|-----------------------------------|
G#|-----------------------------------|
E |-----------------------------------|
B |-----------------7-8-9-------------|
F#|--2--5--2----7/9-5-6-7-------------|
C#|--0--3--0----5/7-------------------|

Riff 2 :


C#|-------------------------------------------------------------|
G#|-------------------------------------------------------------|
E |-------------------------------------------------------------|
B |--9--7/9--7--9----5-7-7^-------9--7/9--7--9--------5---------|
F#|--7--5/7--5--7--7--------7-----7--5/7--5--7--7-7-7---7-5^----|
C#|-------------------------------------------------------------|

Break (Weird guitar thing before Riff 3) :


C#|----------------------------------13p12----|
G#|--------12------13-------12----------------|
E |--7/10------10------10--------10-----------|
B |-------------------------------------------|
F#|-------------------------------------------|
C#|-------------------------------------------|

Riff 3 :


C#|-------------------------------------------------------|
G#|-------------------------------------------------------|
E |-------------------------------------------------------|
B |--9--9--xxx--9--9--xxx--9--9--xxx---7-7--8-8-----------|
F#|--9--9--xxx--9--9--xxx--9--9--xxx---7-7--8-8-----------|
C#|--7--7--xxx--7--7--xxx--7--7--xxx---5-5--6-6-----------|

Faint Solo bit :

C#|--0--3--0---5^r6666666-----|
G#|---------------------------|
E |---------------------------|
B |---------------------------|   (Mainly improvisation / Octaves)
F#|---------------------------|
C#|---------------------------|

That's about it, really...just keep repeating the main riff and you're happy...

...ahem...wooooooah-oh-hoe...
Добавлено: 06.06.2013
Другие материалы по этой песне:
  • Аккорды и текст

Страница создана 06.06.2013
http://primanota.ru/miyavi/rock-no-gyakushuu-chords.htm
Привет, Гость.
Предлагаем пройти революционный курс по гитаре.
Подарок от PrimaNota.Ru, забирай!