PrimaNota.ru - самый крупный в мире бесплатный архив песенных текстов, аккордов, табулатур и нот


Miyavi - Gravity - текст песни, таба, видео

Регистрация Запомнить меня
Войти через:  Facebook Google Twitter Vk Yandex Mail.ru

Miyavi - Gravity - текст песни, таба, видео

Печатать
Просмотров: 332
Miyavi - Gravity (Album: What's my Name?)

Tuning: Drop D


Verses:
e|-----------|
B|-------5---|
G|---------7-|
D|----7------|
A|-----------|
D|-0---------|3x

e|-5---|
B|-5-5-|
G|-5---|
D|-----|
A|-----|
D|-----|

e|--------------|
B|-------5------|
G|---------7----|
D|----7---------|
A|--------------|
D|-0------------|

Pre-Chorus:
e|-----------|
B|---------5-|
G|------7----|
D|---7-------|
A|-----------|
D|-0---------|

e|-6--|
B|-7--|
G|-7--|
D|-5--|
A|----|
D|----|

Chorus:
e|---------|
B|---------|
G|-7-7-x-x-|
D|-7-7-x-x-|
A|-5-5-x-x-|
D|---------|

-Repeat Verses-

-Repeat Chorus-

Bridge:
e|-------------------------------|
B|-------------------------------|
G|-----2-----3-3-3-----5-----3-3-|
D|-2-2-2-2-2-3-3-3-5-5-5-3-3-3-3-|
A|-0-0-0-0-0-1-1-1-3-3-3-1-1-1-1-|
D|-------------------------------|

e|-------------------------------|
B|-------------------------------|
G|-----2-2-----3-3-----5-5-6-6-6-|
D|-2-2-2-2-3-3-3-3-5-5-5-5-6-6-6-|
A|-0-0-0-0-1-1-1-1-3-3-3-3-4-4-4-|
D|-------------------------------|

e|-------------------------------|
B|-------------------------------|
G|-----2-----3-3-3-----5-----3-3-|
D|-2-2-2-2-2-3-3-3-5-5-5-3-3-3-3-|
A|-0-0-0-0-0-1-1-1-3-3-3-1-1-1-1-|
D|-------------------------------|

e|-------------------------------|
B|-------------------------------|
G|-----2-2-----3-3-0-0-0-0--3-2-0|
D|-2-2-2-2-3-3-3-3-0-0-0-0--3-2-0|
A|-0-0-0-0-1-1-1-1----------1-0--|
D|-------------------------------|

-Repeat Verses-


Lyrics:
Haiiro ni kusunda kono sora wa kigi no tameiki
Kuroku nigotta kono ame wa daichi no namida

Konkuriito ni kuchi wo fusagare
Shiyoku no tame ni hana mo sogarete
Sore demo ikiru imi wa aru no
Sore demo mamoru kachi wa aru no

Chiisana hoshi no chiisana bokura
Inoredo toki wa sude ni ososugite
Itsushika dekita hizumi ni nanimokamo
Nomikomarete

Mou kowareru

Let me out.

Mijikai ashi no hippari ai to
Tsumi no nasuritsuke ai
Idaita yume wa doko ni kieta
Nani ni baketa?

Ego ga ego wo umitsuzukete
Soshite mata betsu no ego wo yobu
Sono kusatta wa no naka ni
Jibun ga iru to omou to

Hakike ga suru.

She is cryin'. Cryin', cryin'


Tab by: MARK
Добавлено: 11.09.2013
Другие материалы по этой песне:
  • Аккорды и текст

Страница создана 11.09.2013
http://primanota.ru/miyavi/gravity-chords.htm
Привет, Гость.
Предлагаем пройти революционный курс по гитаре.
Подарок от PrimaNota.Ru, забирай!