PrimaNota.ru - самый крупный в мире бесплатный архив песенных текстов, аккордов, табулатур и нот


Misc - Mormon Hymns - My Heavenly Father Loves Me - таба, видео

Регистрация Запомнить меня
Войти через:  Facebook Google Twitter Vk Yandex Mail.ru

Misc - Mormon Hymns - My Heavenly Father Loves Me - таба, видео

Печатать
Просмотров: 64
-------------------------------------------------------------------------------
My Heavenly Father Loves Me
LDS Children Song Book
-------------------------------------------------------------------------------
Tabbed by:tylah827      
E-mail:tyler_anders@hotmail.com

***This song is the property of the Church of Jesus Christ of Latter Day Saints. 
For non-commercial church or home use only.***

Tuning:Standard

   
  -ever   hear    song    bird                   sky             ever    feel
e|-6---x---6---x---6---x---6---x---3---x---3---x---3---x---3---x---4---x---4---x-----|
B|-8---x---8---x---6---x---6---x---4---x---4---x---3---x---3---x---4---x---4---x-----|
G|-8---x---8---x---7---x---7---x---5---x---5---x---4---x---4---x---5---x---5---x-----|
D|-8---x---8---x---6---x---6---x---5---x---5---x---5---x---5---x---6---x---6---x-----|
A|-6---x---6---x---8---x---8---x---3---x---3---x---5---x---5---x---6---x---6---x-----|
E|-----x-------x---6---x---6---x-------x-------x---3---x---3---x---4---x---4---x-----|


   Rain    face   wind            by
e|--6---x---6---x---4--6-4--------6---x---6---x---------------------------------------|
B|--8---x---8---x---4------8-6-4--6---x---6---x---------------------------------------|
G|--8---x---8---x---5-------------7---x---7---x---------------------------------------|
D|--8---x---8---x---6-------------6---x---6---x---------------------------------------|
A|--6---x---6---x---6-------------8---x---8---x---------------------------------------|
E|------x-------x---4-------------6---x---6---x---------------------------------------|


-ever   touch  velvet  rose    walk    lilac    tree         I'm glad            world
-6---x---6---x---6---x---6---x---3---x---3---x---3---x---3---x--------------------6-6-11-|
-8---x---8---x---6---x---6---x---4---x---4---x---3---x---3---x--------------------8-8-13-|
-8---x---8---x---7---x---7---x---5---x---5---x---4---x---4---x---4----------------8-8-13-|
-8---x---8---x---6---x---6---x---5---x---5---x---3---x---3---x---6---------5-6-8--8-8-13-|
-6---x---6---x---8---x---8---x---3---x---3---x---5---x---5---x---6---5-6-8--------6-6-11-|
-----x-------x---6---x---6---x-------x-------x---3---x---3---x---4-----------------------|



e|--6-x-6-x-6--x--6-----------------------------------------------------------------|
B|--8-x-6-x-8--x--8-----------------------------------------------------------------|
G|--8-x-7-x-8--x--8-----------------------------------------------------------------|
D|--8-x-6-x-8--x--8-----------------------------------------------------------------|
A|--6-x-8-x-6--x--6-----------------------------------------------------------------|
E|------6-x-------------------------------------------------------------------------|


Whenever I hear the song of a bird 
Or look at the blue, blue sky, 
Whenever I feel the rain on my face
Or the wind as it rushes by,
Whenever I touch a velvet rose 
Or walk by our lilac tree,
I'm glad that I live in this beautiful world
Heavenly Father created for me.
************************************

| /   slide up
| \   slide down
| h   hammer-on
| p   pull-off
| ~   vibrato
| +   harmonic
| x   Mute note
| b   Bend
| pb  Pre-bend
| br  Bend release
| pbr Pre-bend release
| brb Bend release bend

************************************
Добавлено: 07.09.2013
Другие материалы по этой песне:
  • Аккорды и текст

Страница создана 07.09.2013
http://primanota.ru/misc/mormon-hymns-my-heavenly-father-loves-me-chords.htm
Привет, Гость.
Предлагаем пройти революционный курс по гитаре.
Подарок от PrimaNota.Ru, забирай!