PrimaNota.ru - самый крупный в мире бесплатный архив песенных текстов, аккордов, табулатур и нот


Misc - The Falling V - таба, видео

Регистрация Запомнить меня
Войти через:  Facebook Google Twitter Vk Yandex Mail.ru

Misc - The Falling V - таба, видео

Печатать
Просмотров: 82
Уроки эстрадного вокала в Санкт-Петербурге
A while ago i did a song but i dont know it holds it like todays music...
If you dont like or like it... Just take a look..

The Falling
Style: Groove Metal / Metal Rock
Bpm: 132
Made by: Sebastian Padilla daniel / Atian
My Mail: Musican_seba@live.se / Sebastian.padillalara@gmail.com 
Tunings: E Standart and D tuning
Date: 2/21/2013


      *                                          * * **
e|-----------------------------------------------------------|
B|-----------------------------------------------------------|
G|-----------------------------------------------------------|
D|-----------------------------------------------------2b----|
A|---------2------2------2-------2-------2--------------0----|
E|----0-12\0---3b-0-0-3b-0-00-3b-0-00-3b-0-00-3b-3-2-00-0----|
                                          * * **
e|--------------------------------------------------|
B|----------------------------------------------------|
G|----------------------------------------------------|
D|----------------------------------------------------|
A|---2-----2------2-------2-------2--------------3----|
E|---0--3b-0-0-3b-0-00-3b-0-00-3b-0-00-3b-3-2-00-1----|
                  **    **        **        ** * * **
e|----------------------------------------------------------|
B|----------------------------------------------------------|
G|----------------------------------------------------------|
D|----------------------------------------------------2b----|
A|---2-----2------22----2------22----2------22--------0-----|
E|---0--3b-0-0-3b-00-3b-0-0-3b-00-3b-0-0-3b-00-3-2-00-0-----|
                  **    **        **        ** * * **
e|----------------------------------------------------------|
B|----------------------------------------------------------|
G|----------------------------------------------------------|
D|----------------------------------------------------------|
A|---2-----2------22----2------22----2------22--------3-----|
E|---0--3b-0-0-3b-00-3b-0-0-3b-00-3b-0-0-3b-00-3-2-00-1-----|
                  **    **        **        ** * * * * * * *
e|-----------------------------------------------------------|
B|-----------------------------------------------------------|
G|-----------------------------------------------------------|
D|-----------------------------------------------------------|
A|---2-----2------22----2------22----2------22-------5---4---|
E|---0--3b-0-0-3b-00-3b-0-0-3b-00-3b-0-0-3b-00-3-2-0-3-0-2-0-|
         *  **     *  **     *  **       * * * * * * *
e|-------------------------------------------------------------|
B|-------------------------------------------------------------|
G|-------------------------------------------------------------|
D|---4--4-5----7--7-5----4--4-5----7-7/5-----------------------|
A|---2--2-3-00-5--5-3-00-2--2-3-00-5-5/3-------5---4---3--0----|
E|-------0--22-----0--22-----0--22-------5-4-0-3-0-2-0-1--2----|





                                         * * **
e|---------------------------------------------------|
B|---------------------------------------------------|
G|---------------------------------------------------|
D|----------------------------------------------2b---|
A|--------2------2-------2-------2--------------0----|
E|-----3b-0-0-3b-0-00-3b-0-00-3b-0-00-3b-3-2-00-0----|
                                          * * **
e|---------------------------------------------------------|
B|---------------------------------------------------------|
G|---------------------------------------------------------|
D|---------------------------------------------------------|
A|---2-----2------2-------2-------2------------------------|
E|---0--3b-0-0-3b-0-00-3b-0-00-3b-0-00-3b-3-2-00-2/12\2----|
                  **    **        **        ** * * **
e|----------------------------------------------------------|
B|----------------------------------------------------------|
G|----------------------------------------------------------|
D|----------------------------------------------------------|
A|---2-----2------22----2------22----2------22--------3-----|
E|---0--3b-0-0-3b-00-3b-0-0-3b-00-3b-0-0-3b-00-3-2-00-1-----|
                  **    **        **        ** * * **
e|----------------------------------------------------------|
B|----------------------------------------------------------|
G|----------------------------------------------------------|
D|----------------------------------------------------------|
A|---2-----2------22----2------22----2------22--------3-----|
E|---0--3b-0-0-3b-00-3b-0-0-3b-00-3b-0-0-3b-00-3-2-00-1-----|
                  **    **        **        ** * * * * * * *
e|-----------------------------------------------------------|
B|-----------------------------------------------------------|
G|-----------------------------------------------------------|
D|-----------------------------------------------------------|
A|---2-----2------22----2------22----2------22-------5---4---|
E|---0--3b-0-0-3b-00-3b-0-0-3b-00-3b-0-0-3b-00-3-2-0-3-0-2-0-|
         *  **     *  **     *  **       * * * * * * *
e|-------------------------------------------------------------|
B|-------------------------------------------------------------|
G|-------------------------------------------------------------|
D|---4--4-5----7--7-5----4--4-5----7-7/5-----------------------|
A|---2--2-3-00-5--5-3-00-2--2-3-00-5-5/3-------5---4---3--0----|
E|-------0--22-----0--22-----0--22-------5-4-0-3-0-2-0-1--2----|








                                                          * * **
e|------------------------------------------------------------------------|
B|------------------------------------------------------------------------|
G|------------------------------------------------------------------------|
D|-----------------------------------------2b--------------------2b-------|
A|--------2-------2----2-------2----2------0--0----0-------------0--------|
E|-----3b-0-0-3b--0-3b-0-0-3b--0-3b-0-0-3b-0--2-3b-2-0-3b-3-2-00-0--------|
                             * * **                * * **       * * ** * * * *
e|------------------------------------------------------------------------------|
B|------------------------------------------------------------------------------|
G|------------------------------------------------------------------------------|
D|----------------------------------2b------------------------3b----------------|
A|--2----2-------2----2-------------0--0----0-------------3-2-0--------5---4----|
E|--0-3b-0-0-3b--0-3b-0-0-3b-3-2-00-0--2-3b-2-0-3b-3-2-00-1-0-0-3-2-00-3-0-2-0--|
      **      *******   **      *******   **     ****   **    * * ** * * * * 
e|-------------------------------------------------------------------------------|
B|-------------------------------------------------------------------------------|
G|-------------------------------------------------------------------------------|
D|-------------------------------------------------------------------------------|
A|--5----4/3--3333300-5----4/3--3333300-5----4/7-7700-5----4---------5---4---3-0-|
E|--3-00-2/1--1111100-3-00-2/1--1111100-3-00-2/5-5500-3-00-2--3-2-00-3-0-2-0-1-2-|
      *                                          * * **
e|-----------------------------------------------------------|
B|-----------------------------------------------------------|
G|-----------------------------------------------------------|
D|-----------------------------------------------------2b----|
A|---------2------2------2-------2-------2--------------0----|
E|----2/12\0---3b-0-0-3b-0-00-3b-0-00-3b-0-00-3b-3-2-00-0----|
                                          * * **
e|----------------------------------------------------|
B|----------------------------------------------------|
G|----------------------------------------------------|
D|----------------------------------------------------|
A|---2-----2------2-------2-------2--------------3----|
E|---0--3b-0-0-3b-0-00-3b-0-00-3b-0-00-3b-3-2-00-1----|
                                                          * * **
e|------------------------------------------------------------------------|
B|------------------------------------------------------------------------|
G|------------------------------------------------------------------------|
D|-----------------------------------------2b--------------------2b-------|
A|--------2-------2----2-------2----2------0--0----0-------------0--------|
E|-----3b-0-0-3b--0-3b-0-0-3b--0-3b-0-0-3b-0--2-3b-2-0-3b-3-2-00-0--------|







            * * **          * * ** * * * *      **    * * **      * * ** * * * *
e|--------------------------------------------------------------------------------|
B|--------------------------------------------------------------------------------|
G|--------------------------------------------------------------------------------|
D|-----2b--------------2b------------------2b-------------------------------------|
A|--2--0-2---------3-2-0-2---------5---4---0-0-----0---------3-2---------5---4---0|
E|--0--0-0--3-2-00-1-0-0-0--3-2-00-3-0-2-0-0-2--00-2--3-2-00-1-0--3-2-00-3-0-2-0-2|

                                          
e|-------|
B|-------|
G|-------|
D|-------|
A|-2v----|
E|-0-----|

This is the lyrics...
the 2 first bar you shall not sing on it..

heeeaahhhh .....

how long should I eat this burden ....
sees a devil come and whisper to me ear ....

ahh ...

if I could curve you in the broken stone ...
Your drinking a cup and your blood ....

If I could take your face and put it in the middle of the mighty city of your ..

To kill those you have given me ..

yeaahh! ..
Добавлено: 15.08.2013
Другие материалы по этой песне:
  • Аккорды и текст

Страница создана 15.08.2013
http://primanota.ru/misc/the-falling-v-chords.htm
Привет, Гость.
Предлагаем пройти революционный курс по гитаре.
Подарок от PrimaNota.Ru, забирай!