PrimaNota.ru - самый крупный в мире бесплатный архив песенных текстов, аккордов, табулатур и нот


Misc - Tsukasa - In My Heart - таба, видео

Регистрация Запомнить меня
Войти через:  Facebook Google Twitter Vk Yandex Mail.ru

Misc - Tsukasa - In My Heart - таба, видео

Печатать
Просмотров: 70
Уроки эстрадного вокала в Санкт-Петербурге
Hey guys, this is my first tab and I used a reference for it.
I am not Del2f, and I do not take credit for his way of playing, instead, I do take 
credit for the effort I put in to write this tab.
Please do cut me some slack, this is my first tab and I just hope that I used the 
correct tags(the stuff on the Legend) here. I also hope you like it!

In My Heart
FULL Version
From: DJ Max
Composed by: Tsukasa
Vocals: Misaki
Tabs: Clark Alaan
Reference: Del2f
Video: http://www.youtube.com/watch?v=hN0bF09Rjmk
Accuracy: About 80% Accurate

Legend
/-slide
h-hammer
p-pull off
^-bend
v-vibrate/vibrato
=(Riff/Part)-immediate transition

Intro:

e|-----------------------------------------------|
B|-----------------------------------------------|
G|---10-8-6/8/10----10-8-6-----------------------|
D|-4-10-8-6/8/10--4-10-8-6-----------------------|
A|-4-8--6-4/6/8---4-8--6-4-----------------------|
E|-2--------------2------------------------------|

Riff 1
e|------16b-14-13--------------------------------|
B|-13-14----------16--16-16-16-18-18v------------|
G|-----------------------------------------------|
D|-----------------------------------------------|
A|-----------------------------------------------|
E|-----------------------------------------------|

e|----16b-14-13----------------------------------|
B|-14----------16--16-16-16-18-18v---------------|
G|-----------------------------------------------|
D|-----------------------------------------------|
A|-----------------------------------------------|
E|-----------------------------------------------|

Riff 2:
e|----16b-14-13-------------16-------------------|
B|-14----------16-14-16-16----14v----------------|
G|-----------------------------------------------|
D|-----------------------------------------------|
A|-----------------------------------------------|
E|-----------------------------------------------|

e|----------14-16----18-20-21--20-18-20v---------|
B|-13-14-14--------------------------------------|
G|-----------------------------------------------|
D|-----------------------------------------------|
A|-----------------------------------------------|
E|-----------------------------------------------|

Verse:

Nothing.. Really.

PreChorus:


e|--------------------------------x-x------------|
B|--------------------------------x-x------------|
G|--------------------------------x-x------------|
D|-4-6-3-8-6/4------6--------8-6--x-x------------|
A|-4-6-3-8-6/4--2-5-6--2-5-6-8-6--x-x------------|
E|-2-4-1-6-4/2------4--------6-8--x-x------------|

Chorus:

e|-----------------------------------------------|
B|-----------------------------------------------|
G|-----------------------------------------------|
D|-4-8-10-8/4------------------------------------|
A|-4-8-10-8/4------------------------------------|
E|-2-6-8--6/2------------------------------------|

-                                                                      -
I tabbed this part myself since I couldn't figure it out from the video.

Riff 3: After Chorus 1
e|------------------------------------14----14-18-16-------------|
B|-14--13--14--14-16-18-18---14-16-18----18----------14-16-18-18-|
G|---13--13--13--------------------------------------------------|
G|---------------------------------------------------------------|
D|---------------------------------------------------------------|
A|---------------------------------------------------------------|
E|---------------------------------------------------------------|

Riff 4: After Riff 2
e|-------------------------14/18-16-14-------------------------------------------|
B|-14--13--14--14/18-16-14-------------18p16-18-14-------16/18-16-14-16p14-16----|
G|---13--14--13------------------------------------14-16----------------------13-|
D|-------------------------------------------------------------------------------|
A|-------------------------------------------------------------------------------|
E|-------------------------------------------------------------------------------|

-Verse
-Prechorus
-Chorus

-        -
Referenced

Riff 5
e|-6/16-16-16-14-13-14-13----------------------------------------|
B|------------------------14--------------------10-13^-----------|
G|---------------------------13-13---6/10-11-13-------13---------|
D|------------------------------------------------------13-15-15-|
A|---------------------------------------------------------------|
E|---------------------------------------------------------------|

e|-14-13-16-14-13----------------------|
B|----------------14-------------------|
G|-------------------13-6/10-11-13-----|
D|---------------------------------11--|
A|-------------------------------------|
E|-------------------------------------|

e|-----------------------------------------------|
B|------------------11-11/14-14-12-12-14-14------|
G|------------11-10------------------------------|
D|-8/11-13-11------------------------------------|
A|-----------------------------------------------|
E|-----------------------------------------------|

Part 2
e|-6/18-18-16v-----------------------------------|
B|-----------------------------------------------|
G|-----------------------------------------------|
D|-----------------------------------------------|
A|-----------------------------------------------|
E|-----------------------------------------------|

Part 3
e|-13b-------------------------------------------|
B|-----14----------------------------------------|
G|--------13-11-10--11-13-13v--------------------|
D|-----------------------------------------------|
A|-----------------------------------------------|
E|-----------------------------------------------|

Part 4
e|-16b-16b-16-------13-13-14-14--------13-13-|
B|------------14h16-------------16-16--------|
G|-------------------------------------------|
D|-------------------------------------------|
A|-------------------------------------------|
E|-------------------------------------------|

=chorus
=Riff 1

Riff 6
e|----16b-14-13-------------16-------------------|
B|-14----------16-14-16-16----14v----------------|
G|-----------------------------------------------|
D|-----------------------------------------------|
A|-----------------------------------------------|
E|-----------------------------------------------|

e|-----------------------------------------------|
B|-13-14-14-16-16-14-13---14-14------------------|
G|-----------------------------------------------|
D|-----------------------------------------------|
A|-----------------------------------------------|
E|-----------------------------------------------|

END

Tabbed by Clark Alaan
Reference: Del2f
Video: http://www.youtube.com/watch?v=hN0bF09Rjmk
Добавлено: 29.07.2013
Другие материалы по этой песне:
  • Аккорды и текст

Страница создана 29.07.2013
http://primanota.ru/misc/tsukasa-in-my-heart-chords.htm
Привет, Гость.
Предлагаем пройти революционный курс по гитаре.
Подарок от PrimaNota.Ru, забирай!