PrimaNota.ru - самый крупный в мире бесплатный архив песенных текстов, аккордов, табулатур и нот


Misc Unsigned Bands - Zhang Xuan - Bao Bei - таба

Регистрация Запомнить меня
Войти через:  Facebook Google Twitter Vk Yandex Mail.ru

Misc Unsigned Bands - Zhang Xuan - Bao Bei - таба

Печатать
Просмотров: 54
for those of you who were too lazy to get power tab editor
(didnt know power tab could do this! go to file and export to ACSII. just...wow!)


Q=Quarter Note
E=Eighth Note

 4/4
  Gtr I
  Q  E Q  E E E   Q  E Q  E E E   Q  E Q  E E E
|---------------|---------------|---------------|
|----1------1---|----3------3---|----1------1---|
|----0------0---|----0------0---|----2------2---|
|---------------|---------------|-3----3--3---3-|
|-3----3--3---3-|-2----2--2---2-|---------------|
|---------------|---------------|---------------|


  Q  E Q  E E E    Q E Q  E E E
|---------------|-----------------|
|----3------3---|----1------1-----|
|----0------0---|----0------0-----|
|---------------|-----------------|
|---------------|--3---3--3---3---|
|-3----3--3---3-|-----------------|


                                     GtGtr II
  Q E Q E E E   E E E E E E E E   Q. E E    H
|-------------|---0-----0-----1-|--------|-----|
|---3-----3---|-----1-----1-----|--------|-----|
|---0-----0---|-------2-----2---|--------|-----|
|-------------|-3---------------|-----*-*|-----|
|-2---2-2---2-|-----------------|--------|-----|  on the * just pat the guitar on the beat
|-------------|-----------------|-3------|-----|


    Gtr I
    Q  E Q  E E E   Q  E Q   E E E   Q  E Q  E E E   Q  E Q  E E E
||----------------|----------------|---------------|------------------||
||o----1------1---|----3-------3---|----1------1---|----3------3-----o||
||-----0------0---|----0-------0---|----2------2---|----0------0------||
||----------------|----------------|-3----3--3---3-|------------------||
||o-3----3--3---3-|-2----2---2---2-|---------------|-----------------o||
||----------------|----------------|---------------|-3----3--3---3----||


  Q  E Q  E E E   Q  E Q  E E E   Q  E Q  E E E   Q  E Q  E E E
|---------------|---------------|---------------|---------------|--|
|----1------1---|----1------1---|----1------1---|----3------3---|--|
|----0------0---|----2------2---|----2------2---|----0------0---|--|
|---------------|---------------|-3----3--3---3-|---------------|--|
|-3----3--3---3-|-0----0--0---0-|---------------|---------------|--|
|---------------|---------------|---------------|-3----3--3---3-|--|


  Q  E Q  E E E   Q  E Q  E E E   Q  E E Q  E E     Q  E Q  E E E
|---------------|---------------|---------------||-----------------||
|----1------1---|----1------1---|----1------3---||o----1------1---o||
|----0------0---|----2------2---|----2------0---||-----0------0----||
|---------------|---------------|-3----3--------||-----------------||
|-3----3--3---3-|-0----0--0---0-|---------------||o-3----3--3---3-o||
|---------------|---------------|--------3----3-||-----------------||


    Q  E Q  E E E   Q  E Q  E E E   Q  E Q  E E E   Q  E Q  E E E
||----------------|---------------|---------------|---------------||
||o----1------1---|----3------3---|----1------1---|----3------3--o||
||-----0------0---|----0------0---|----2------2---|----0------0---||
||----------------|---------------|-3----3--3---3-|---------------||
||o-3----3--3---3-|-2----2--2---2-|---------------|--------------o||
||----------------|---------------|---------------|-3----3--3---3-||


    Q  E Q  E E E   Q  E Q  E E E   Q  E Q  E E E   Q  E Q  E E E
||----------------|---------------|---------------|--------------|
||o----1------1---|----1------1---|----1------1---|----3------3--|
||-----0------0---|----2------2---|----2------2---|----0------0--|
||----------------|---------------|-3----3--3---3-|--------------|
||o-3----3--3---3-|-0----0--0---0-|---------------|--------------|
||----------------|---------------|---------------|-3----3--3---3|


  Q  E Q  E E E   Q  E Q  E E E   Q  E E Q  E E     Q  E Q  E E E  4x
|---------------|---------------|---------------||-----------------||
|----1------1---|----1------1---|----1------3---||o----1------1---o||
|----0------0---|----2------2---|----2------0---||-----0------0----||
|---------------|---------------|-3----3--------||-----------------||
|-3----3--3---3-|-0----0--0---0-|---------------||o-3----3--3---3-o||
|---------------|---------------|--------3----3-||-----------------||


  Q  E Q  E E E   Q  E Q  E E E   Q  E Q  E E E   Q  E Q  E E E
|---------------|---------------|---------------|---------------|
|----1------1---|----1------1---|----1------1---|----3------3---|
|----0------0---|----2------2---|----2------2---|----0------0---|
|---------------|---------------|-3----3--3---3-|---------------|
|-3----3--3---3-|-0----0--0---0-|---------------|---------------|
|---------------|---------------|---------------|-3----3--3---3-|


  Q  E Q  E E E   Q  E Q  E E E   Q  E E Q  E E     Q  E Q  E E E
|---------------|---------------|---------------||-----------------||
|----1------1---|----1------1---|----1------3---||o----1------1---o||
|----0------0---|----2------2---|----2------0---||-----0------0----||
|---------------|---------------|-3----3--------||-----------------||
|-3----3--3---3-|-0----0--0---0-|---------------||o-3----3--3---3-o||
|---------------|---------------|--------3----3-||-----------------||


  Q E Q E E E   Q E Q E E E   Q E Q E E E   Q E Q E E E
|-------------|-------------|-------------|--------------|
|---1-----1---|---1-----1---|---1-----1---|---3-----3----|
|---0-----0---|---2-----2---|---2-----2---|---0-----0----|
|-------------|-------------|-3---3-3---3-|--------------|
|-3---3-3---3-|-0---0-0---0-|-------------|--------------|
|-------------|-------------|-------------|-3---3-3---3--|


  Q E Q E E E   Q E Q  E E E   Q E Q E E E   E E E E E E E E
|-------------|--------------|-------------|---1-----1----------|
|---1-----1---|---1------1---|---1-----1---|-----0-----0--------|
|---0-----0---|---2------2---|---2-----2---|-------0-----0------|
|-------------|--------------|-3---3-3---3-|---------------0----|
|-3---3-3---3-|-0---0--0---0-|-------------|--------------------|
|-------------|--------------|-------------|-3------------------|


  Q  E Q  E E E   Q  E Q  E E E   Q  E Q  E E E   Q  E Q  E E E
|---------------|---------------|---------------|---------------|
|----1------1---|----1------1---|----1------1---|----3------3---|
|----0------0---|----2------2---|----2------2---|----0------0---|
|---------------|---------------|-3----3--3---3-|---------------|
|-3----3--3---3-|-0----0--0---0-|---------------|---------------|
|---------------|---------------|---------------|-3----3--3---3-|


                                    H.=H                 H.=H
  Q  E Q  E E E   Q  E Q  E E E   Q  E E Q  E E   Q  E Q  E E E
|---------------|---------------|---------------|---------------|
|----1------1---|----1------1---|----1------3---|----1------1---|
|----0------0---|----2------2---|----2------0---|----0------0---|
|---------------|---------------|-3----3--------|---------------|
|-3----3--3---3-|-0----0--0---0-|---------------|-3----3--3---3-|
|---------------|---------------|--------3----3-|---------------|


                H.=H
  Q E Q E E E   Q. Q Q   Q. Q Q   Q Q Q Q   W
|-------------|--------|--------|---------|------*|
|---1-----1---|----1---|----3---|-------1-|------*|
|---0-----0---|----2---|----0---|-----0---|------*|
|-------------|--------|--------|---2-----|------*|
|-3---3-3---3-|-0----0-|--------|-3-------|-3----*|
|-------------|--------|-3----3-|---------|------*|



Добавлено: 11.02.2014
Другие материалы по этой песне:
  • Аккорды и текст

Страница создана 11.02.2014
http://primanota.ru/misc-unsigned-bands/zhang-xuan-bao-bei-chords.htm
Привет, Гость.
Предлагаем пройти революционный курс по гитаре.
Подарок от PrimaNota.Ru, забирай!